ISO-10303-21;
HEADER;
FILE_DESCRIPTION (( 'STEP AP203' ),
    '1' );
FILE_NAME ('321284.step',
    '2021-11-26T13:02:09',
    ( '' ),
    ( '' ),
    'SwSTEP 2.0',
    'SolidWorks 2019',
    '' );
FILE_SCHEMA (( 'CONFIG_CONTROL_DESIGN' ));
ENDSEC;

DATA;
#1 = VERTEX_POINT ( 'NONE', #20 ) ;
#2 = DIRECTION ( 'NONE',  ( -2.027569434243913861E-30, 1.000000000000000000, -5.807189663845455387E-16 ) ) ;
#3 = CIRCLE ( 'NONE', #142, 1.903999999999992587 ) ;
#4 = CARTESIAN_POINT ( 'NONE',  ( 3.378564180496748166E-30, 5.619380739442842372E-31, 9.676592404804892300E-16 ) ) ;
#5 = FACE_BOUND ( 'NONE', #239, .T. ) ;
#6 = PERSON_AND_ORGANIZATION ( #17, #203 ) ;
#7 = MECHANICAL_CONTEXT ( 'NONE', #200, 'mechanical' ) ;
#8 = DATE_AND_TIME ( #22, #193 ) ;
#9 = DATE_AND_TIME ( #25, #115 ) ;
#10 = DIRECTION ( 'NONE',  ( -3.664998382197393967E-31, -1.000000000000000000, -1.049697256412017316E-16 ) ) ;
#11 = ORIENTED_EDGE ( 'NONE', *, *, #59, .T. ) ;
#12 = CC_DESIGN_PERSON_AND_ORGANIZATION_ASSIGNMENT ( #233, #103, ( #69 ) ) ;
#13 = ORIENTED_EDGE ( 'NONE', *, *, #28, .T. ) ;
#14 = EDGE_LOOP ( 'NONE', ( #201 ) ) ;
#15 = CARTESIAN_POINT ( 'NONE',  ( 3.625129388746600435E-14, 6.029479144633481484E-15, 10.38278322847273216 ) ) ;
#16 = FACE_OUTER_BOUND ( 'NONE', #238, .T. ) ;
#17 = PERSON ( 'UNSPECIFIED', 'UNSPECIFIED', 'UNSPECIFIED', ('UNSPECIFIED'), ('UNSPECIFIED'), ('UNSPECIFIED') ) ;
#18 = CYLINDRICAL_SURFACE ( 'NONE', #138, 1.499999999999995337 ) ;
#19 = AXIS2_PLACEMENT_3D ( 'NONE', #189, #61, #191 ) ;
#20 = CARTESIAN_POINT ( 'NONE',  ( -1.892735826383161356E-31, 1.759662432702592483, -5.421010862427522170E-17 ) ) ;
#21 = FACE_OUTER_BOUND ( 'NONE', #205, .T. ) ;
#22 = CALENDAR_DATE ( 2021, 26, 11 ) ;
#23 = CC_DESIGN_APPROVAL ( #199, ( #243 ) ) ;
#24 = PERSON_AND_ORGANIZATION_ROLE ( 'creator' ) ;
#25 = CALENDAR_DATE ( 2021, 26, 11 ) ;
#26 = DATE_TIME_ROLE ( 'creation_date' ) ;
#27 = EDGE_LOOP ( 'NONE', ( #204 ) ) ;
#28 = EDGE_CURVE ( 'NONE', #43, #43, #178, .T. ) ;
#29 = CONICAL_SURFACE ( 'NONE', #227, 1.499999999999997558, 0.7853981633974573828 ) ;
#30 = DIRECTION ( 'NONE',  ( -3.491481338843133355E-15, 1.049697256412017316E-16, -1.000000000000000000 ) ) ;
#31 = PRODUCT ( '321284', '321284', '', ( #7 ) ) ;
#32 = EDGE_LOOP ( 'NONE', ( #202 ) ) ;
#33 = DIRECTION ( 'NONE',  ( 3.664998382197393967E-31, 1.000000000000000000, 1.049697256412017316E-16 ) ) ;
#34 = EDGE_CURVE ( 'NONE', #60, #60, #236, .T. ) ;
#35 = DIRECTION ( 'NONE',  ( -3.491481338843133355E-15, -5.807189663845456373E-16, -1.000000000000000000 ) ) ;
#36 = APPROVAL_PERSON_ORGANIZATION ( #159, #100, #232 ) ;
#37 = PLANE ( 'NONE',  #161 ) ;
#38 = DIRECTION ( 'NONE',  ( -2.027569434243913861E-30, 1.000000000000000000, -5.807189663845456373E-16 ) ) ;
#39 = VERTEX_POINT ( 'NONE', #224 ) ;
#40 = CC_DESIGN_PERSON_AND_ORGANIZATION_ASSIGNMENT ( #6, #162, ( #69 ) ) ;
#41 = AXIS2_PLACEMENT_3D ( 'NONE', #50, #242, #53 ) ;
#42 = CONICAL_SURFACE ( 'NONE', #169, 1.903999999999999693, 0.5235987755982929315 ) ;
#43 = VERTEX_POINT ( 'NONE', #134 ) ;
#44 = DIRECTION ( 'NONE',  ( 1.000000000000000000, 0.0000000000000000000, 0.0000000000000000000 ) ) ;
#45 = LOCAL_TIME ( 14, 2, 9.000000000000000000, #234 ) ;
#46 = COORDINATED_UNIVERSAL_TIME_OFFSET ( 1, 0, .AHEAD. ) ;
#47 = PERSON_AND_ORGANIZATION_ROLE ( 'design_owner' ) ;
#48 = EDGE_LOOP ( 'NONE', ( #170 ) ) ;
#49 = DESIGN_CONTEXT ( 'detailed design', #156, 'design' ) ;
#50 = CARTESIAN_POINT ( 'NONE',  ( 2.444036937190193601E-13, -7.347880794884121511E-15, 70.00000000000000000 ) ) ;
#51 = CARTESIAN_POINT ( 'NONE',  ( 3.625129388746600435E-14, 1.903999999999998582, 10.38278322847273216 ) ) ;
#52 = DIRECTION ( 'NONE',  ( 0.0000000000000000000, 1.000000000000000000, 0.0000000000000000000 ) ) ;
#53 = DIRECTION ( 'NONE',  ( 0.0000000000000000000, 1.000000000000000000, 0.0000000000000000000 ) ) ;
#54 = EDGE_CURVE ( 'NONE', #79, #79, #73, .T. ) ;
#55 = MANIFOLD_SOLID_BREP ( 'Corps-Déplacer/Copier1[2]', #106 ) ;
#56 =( NAMED_UNIT ( * ) SI_UNIT ( $, .STERADIAN. ) SOLID_ANGLE_UNIT ( ) );
#57 = CC_DESIGN_SECURITY_CLASSIFICATION ( #243, ( #69 ) ) ;
#58 = FACE_OUTER_BOUND ( 'NONE', #87, .T. ) ;
#59 = EDGE_CURVE ( 'NONE', #171, #171, #3, .T. ) ;
#60 = VERTEX_POINT ( 'NONE', #90 ) ;
#61 = DIRECTION ( 'NONE',  ( -3.491481338843133355E-15, 1.049697256412017316E-16, -1.000000000000000000 ) ) ;
#62 = CC_DESIGN_PERSON_AND_ORGANIZATION_ASSIGNMENT ( #98, #81, ( #243 ) ) ;
#63 = APPROVAL_ROLE ( '' ) ;
#64 = PERSON_AND_ORGANIZATION ( #17, #203 ) ;
#65 = ADVANCED_BREP_SHAPE_REPRESENTATION ( '321284', ( #220, #55, #102 ), #216 ) ;
#66 = LOCAL_TIME ( 14, 2, 9.000000000000000000, #46 ) ;
#67 = PERSON_AND_ORGANIZATION ( #17, #203 ) ;
#68 = AXIS2_PLACEMENT_3D ( 'NONE', #185, #30, #109 ) ;
#69 = PRODUCT_DEFINITION_FORMATION_WITH_SPECIFIED_SOURCE ( 'ANY', '', #31, .NOT_KNOWN. ) ;
#70 = ORIENTED_EDGE ( 'NONE', *, *, #158, .T. ) ;
#71 = DIRECTION ( 'NONE',  ( -3.491481338843133355E-15, 1.049697256412017316E-16, -1.000000000000000000 ) ) ;
#72 = DIRECTION ( 'NONE',  ( -2.023035655868947090E-30, 1.000000000000000000, -5.694339141205385684E-16 ) ) ;
#73 = CIRCLE ( 'NONE', #225, 1.903999999999998360 ) ;
#74 = ORIENTED_EDGE ( 'NONE', *, *, #179, .F. ) ;
#75 = ORIENTED_EDGE ( 'NONE', *, *, #158, .F. ) ;
#76 = CARTESIAN_POINT ( 'NONE',  ( 3.625129388746599804E-14, 1.903999999999998582, 10.38278322847273039 ) ) ;
#77 = ADVANCED_FACE ( 'NONE', ( #163, #221 ), #29, .T. ) ;
#78 = FACE_OUTER_BOUND ( 'NONE', #150, .T. ) ;
#79 = VERTEX_POINT ( 'NONE', #190 ) ;
#80 = APPROVAL_PERSON_ORGANIZATION ( #117, #175, #197 ) ;
#81 = PERSON_AND_ORGANIZATION_ROLE ( 'classification_officer' ) ;
#82 = DATE_TIME_ROLE ( 'classification_date' ) ;
#83 = DATE_AND_TIME ( #157, #222 ) ;
#84 = APPROVAL_DATE_TIME ( #9, #100 ) ;
#85 = DIRECTION ( 'NONE',  ( -3.491481338843133355E-15, -5.807189663845456373E-16, -1.000000000000000000 ) ) ;
#86 = ORIENTED_EDGE ( 'NONE', *, *, #213, .T. ) ;
#87 = EDGE_LOOP ( 'NONE', ( #218 ) ) ;
#88 = ORIENTED_EDGE ( 'NONE', *, *, #213, .F. ) ;
#89 = ORIENTED_EDGE ( 'NONE', *, *, #28, .F. ) ;
#90 = CARTESIAN_POINT ( 'NONE',  ( 2.444036937190193601E-13, 1.199999999999990186, 70.00000000000000000 ) ) ;
#91 = DIRECTION ( 'NONE',  ( -3.491481338843133355E-15, 1.049697256412017316E-16, -1.000000000000000000 ) ) ;
#92 = ADVANCED_FACE ( 'NONE', ( #107 ), #123, .T. ) ;
#93 = FACE_BOUND ( 'NONE', #146, .T. ) ;
#94 = CIRCLE ( 'NONE', #119, 1.499999999999997558 ) ;
#95 = CARTESIAN_POINT ( 'NONE',  ( 0.0000000000000000000, 0.0000000000000000000, 0.0000000000000000000 ) ) ;
#96 = APPROVAL_STATUS ( 'not_yet_approved' ) ;
#97 = AXIS2_PLACEMENT_3D ( 'NONE', #188, #177, #38 ) ;
#98 = PERSON_AND_ORGANIZATION ( #17, #203 ) ;
#99 = SECURITY_CLASSIFICATION_LEVEL ( 'unclassified' ) ;
#100 = APPROVAL ( #96, 'UNSPECIFIED' ) ;
#101 = COORDINATED_UNIVERSAL_TIME_OFFSET ( 1, 0, .AHEAD. ) ;
#102 = AXIS2_PLACEMENT_3D ( 'NONE', #139, #180, #44 ) ;
#103 = PERSON_AND_ORGANIZATION_ROLE ( 'design_supplier' ) ;
#104 = ADVANCED_FACE ( 'NONE', ( #198 ), #184, .T. ) ;
#105 = CARTESIAN_POINT ( 'NONE',  ( 8.728703347107871845E-16, 1.451797415961370256E-16, 0.2500000000000011102 ) ) ;
#106 = CLOSED_SHELL ( 'NONE', ( #235, #226, #147, #112 ) ) ;
#107 = FACE_OUTER_BOUND ( 'NONE', #27, .T. ) ;
#108 = PLANE ( 'NONE',  #97 ) ;
#109 = DIRECTION ( 'NONE',  ( 0.0000000000000000000, 1.000000000000000000, 0.0000000000000000000 ) ) ;
#110 = CC_DESIGN_APPROVAL ( #175, ( #127 ) ) ;
#111 = CARTESIAN_POINT ( 'NONE',  ( 3.378564180496748166E-30, 5.619380739442842372E-31, 9.676592404804892300E-16 ) ) ;
#112 = ADVANCED_FACE ( 'NONE', ( #128 ), #108, .T. ) ;
#113 = DIRECTION ( 'NONE',  ( 3.664998382197393967E-31, 1.000000000000000000, 1.049697256412017316E-16 ) ) ;
#114 = DIRECTION ( 'NONE',  ( -3.491481338843133355E-15, 1.049697256412017316E-16, -1.000000000000000000 ) ) ;
#115 = LOCAL_TIME ( 14, 2, 9.000000000000000000, #144 ) ;
#116 = CARTESIAN_POINT ( 'NONE',  ( 2.433562493173664138E-13, -7.316389877191761450E-15, 69.70000000000001705 ) ) ;
#117 = PERSON_AND_ORGANIZATION ( #17, #203 ) ;
#118 = APPLICATION_PROTOCOL_DEFINITION ( 'international standard', 'config_control_design', 1994, #156 ) ;
#119 = AXIS2_PLACEMENT_3D ( 'NONE', #116, #91, #135 ) ;
#120 = APPROVAL_DATE_TIME ( #121, #199 ) ;
#121 = DATE_AND_TIME ( #215, #66 ) ;
#122 = ADVANCED_FACE ( 'NONE', ( #78, #230 ), #18, .T. ) ;
#123 = PLANE ( 'NONE',  #152 ) ;
#124 = EDGE_LOOP ( 'NONE', ( #88 ) ) ;
#125 = ORIENTED_EDGE ( 'NONE', *, *, #34, .F. ) ;
#126 = AXIS2_PLACEMENT_3D ( 'NONE', #187, #148, #10 ) ;
#127 = PRODUCT_DEFINITION ( 'UNKNOWN', '', #69, #49 ) ;
#128 = FACE_OUTER_BOUND ( 'NONE', #219, .T. ) ;
#129 = DIRECTION ( 'NONE',  ( -3.491481338843133355E-15, 1.049697256412017316E-16, -1.000000000000000000 ) ) ;
#130 = CARTESIAN_POINT ( 'NONE',  ( 3.625129388746599804E-14, 1.903999999999998582, 10.38278322847273039 ) ) ;
#131 = PRODUCT_RELATED_PRODUCT_CATEGORY ( 'detail', '', ( #31 ) ) ;
#132 = UNCERTAINTY_MEASURE_WITH_UNIT (LENGTH_MEASURE( 1.000000000000000082E-05 ), #194, 'distance_accuracy_value', 'NONE');
#133 = DIRECTION ( 'NONE',  ( -3.491481338843133355E-15, 1.049697256412017316E-16, -1.000000000000000000 ) ) ;
#134 = CARTESIAN_POINT ( 'NONE',  ( 3.869445280877825814E-14, 1.499999999999991562, 11.08253175473057794 ) ) ;
#135 = DIRECTION ( 'NONE',  ( 0.0000000000000000000, 1.000000000000000000, 0.0000000000000000000 ) ) ;
#136 = FACE_OUTER_BOUND ( 'NONE', #48, .T. ) ;
#137 = APPROVAL_PERSON_ORGANIZATION ( #64, #199, #63 ) ;
#138 = AXIS2_PLACEMENT_3D ( 'NONE', #95, #114, #113 ) ;
#139 = CARTESIAN_POINT ( 'NONE',  ( 0.0000000000000000000, 0.0000000000000000000, 0.0000000000000000000 ) ) ;
#140 = ADVANCED_FACE ( 'NONE', ( #5, #16 ), #42, .T. ) ;
#141 = APPROVAL_DATE_TIME ( #8, #175 ) ;
#142 = AXIS2_PLACEMENT_3D ( 'NONE', #223, #167, #145 ) ;
#143 = PERSON_AND_ORGANIZATION ( #17, #203 ) ;
#144 = COORDINATED_UNIVERSAL_TIME_OFFSET ( 1, 0, .AHEAD. ) ;
#145 = DIRECTION ( 'NONE',  ( -3.236857049390325294E-30, 1.000000000000000000, -9.110942625928645099E-16 ) ) ;
#146 = EDGE_LOOP ( 'NONE', ( #75 ) ) ;
#147 = ADVANCED_FACE ( 'NONE', ( #176, #93 ), #231, .T. ) ;
#148 = DIRECTION ( 'NONE',  ( 3.491481338843133355E-15, -1.049697256412017316E-16, 1.000000000000000000 ) ) ;
#149 = CLOSED_SHELL ( 'NONE', ( #104, #77, #122, #140, #92 ) ) ;
#150 = EDGE_LOOP ( 'NONE', ( #86 ) ) ;
#151 = DIRECTION ( 'NONE',  ( -2.027569434243914211E-30, 1.000000000000000000, -5.807189663845456373E-16 ) ) ;
#152 = AXIS2_PLACEMENT_3D ( 'NONE', #51, #129, #33 ) ;
#153 = DIRECTION ( 'NONE',  ( -3.491481338843133355E-15, -5.807189663845456373E-16, -1.000000000000000000 ) ) ;
#154 = CARTESIAN_POINT ( 'NONE',  ( 0.0000000000000000000, 0.0000000000000000000, 0.0000000000000000000 ) ) ;
#155 = DIRECTION ( 'NONE',  ( 3.491481338843133355E-15, 5.807189663845456373E-16, 1.000000000000000000 ) ) ;
#156 = APPLICATION_CONTEXT ( 'configuration controlled 3d designs of mechanical parts and assemblies' ) ;
#157 = CALENDAR_DATE ( 2021, 26, 11 ) ;
#158 = EDGE_CURVE ( 'NONE', #1, #1, #237, .T. ) ;
#159 = PERSON_AND_ORGANIZATION ( #17, #203 ) ;
#160 = CALENDAR_DATE ( 2021, 26, 11 ) ;
#161 = AXIS2_PLACEMENT_3D ( 'NONE', #15, #229, #210 ) ;
#162 = PERSON_AND_ORGANIZATION_ROLE ( 'creator' ) ;
#163 = FACE_BOUND ( 'NONE', #14, .T. ) ;
#164 = CC_DESIGN_APPROVAL ( #100, ( #69 ) ) ;
#165 = CARTESIAN_POINT ( 'NONE',  ( 2.433562493173664138E-13, -7.316389877191761450E-15, 69.70000000000001705 ) ) ;
#166 = CC_DESIGN_DATE_AND_TIME_ASSIGNMENT ( #214, #82, ( #243 ) ) ;
#167 = DIRECTION ( 'NONE',  ( -3.491481338843133355E-15, -5.807189663845456373E-16, -1.000000000000000000 ) ) ;
#168 = EDGE_LOOP ( 'NONE', ( #125 ) ) ;
#169 = AXIS2_PLACEMENT_3D ( 'NONE', #207, #133, #174 ) ;
#170 = ORIENTED_EDGE ( 'NONE', *, *, #59, .F. ) ;
#171 = VERTEX_POINT ( 'NONE', #130 ) ;
#172 = VERTEX_POINT ( 'NONE', #76 ) ;
#173 = CIRCLE ( 'NONE', #19, 1.903999999999999693 ) ;
#174 = DIRECTION ( 'NONE',  ( 0.0000000000000000000, 1.000000000000000000, 0.0000000000000000000 ) ) ;
#175 = APPROVAL ( #212, 'UNSPECIFIED' ) ;
#176 = FACE_OUTER_BOUND ( 'NONE', #32, .T. ) ;
#177 = DIRECTION ( 'NONE',  ( -3.491481338843133355E-15, -5.807189663845456373E-16, -1.000000000000000000 ) ) ;
#178 = CIRCLE ( 'NONE', #68, 1.499999999999992673 ) ;
#179 = EDGE_CURVE ( 'NONE', #172, #172, #173, .T. ) ;
#180 = DIRECTION ( 'NONE',  ( 0.0000000000000000000, 0.0000000000000000000, 1.000000000000000000 ) ) ;
#181 = SHAPE_DEFINITION_REPRESENTATION ( #241, #65 ) ;
#182 = AXIS2_PLACEMENT_3D ( 'NONE', #4, #155, #208 ) ;
#183 = APPROVAL_STATUS ( 'not_yet_approved' ) ;
#184 = PLANE ( 'NONE',  #126 ) ;
#185 = CARTESIAN_POINT ( 'NONE',  ( 3.869445280877825814E-14, -1.163330317703974832E-15, 11.08253175473057794 ) ) ;
#186 = AXIS2_PLACEMENT_3D ( 'NONE', #111, #35, #2 ) ;
#187 = CARTESIAN_POINT ( 'NONE',  ( 2.444036937190193601E-13, -7.347880794884121511E-15, 70.00000000000000000 ) ) ;
#188 = CARTESIAN_POINT ( 'NONE',  ( -1.878555672886690197E-30, 1.759662432702592483, -5.380397288645198367E-16 ) ) ;
#189 = CARTESIAN_POINT ( 'NONE',  ( 3.625129388746599804E-14, -1.089877906884853222E-15, 10.38278322847273039 ) ) ;
#190 = CARTESIAN_POINT ( 'NONE',  ( 8.728703347107833388E-16, 1.903999999999998582, 0.2500000000000000000 ) ) ;
#191 = DIRECTION ( 'NONE',  ( 0.0000000000000000000, 1.000000000000000000, 0.0000000000000000000 ) ) ;
#192 = CC_DESIGN_PERSON_AND_ORGANIZATION_ASSIGNMENT ( #143, #24, ( #127 ) ) ;
#193 = LOCAL_TIME ( 14, 2, 9.000000000000000000, #196 ) ;
#194 =( LENGTH_UNIT ( ) NAMED_UNIT ( * ) SI_UNIT ( .MILLI., .METRE. ) );
#195 = CC_DESIGN_DATE_AND_TIME_ASSIGNMENT ( #83, #26, ( #127 ) ) ;
#196 = COORDINATED_UNIVERSAL_TIME_OFFSET ( 1, 0, .AHEAD. ) ;
#197 = APPROVAL_ROLE ( '' ) ;
#198 = FACE_OUTER_BOUND ( 'NONE', #168, .T. ) ;
#199 = APPROVAL ( #183, 'UNSPECIFIED' ) ;
#200 = APPLICATION_CONTEXT ( 'configuration controlled 3d designs of mechanical parts and assemblies' ) ;
#201 = ORIENTED_EDGE ( 'NONE', *, *, #34, .T. ) ;
#202 = ORIENTED_EDGE ( 'NONE', *, *, #54, .T. ) ;
#203 = ORGANIZATION ( 'UNSPECIFIED', 'UNSPECIFIED', '' ) ;
#204 = ORIENTED_EDGE ( 'NONE', *, *, #179, .T. ) ;
#205 = EDGE_LOOP ( 'NONE', ( #11 ) ) ;
#206 = CYLINDRICAL_SURFACE ( 'NONE', #209, 1.903999999999995474 ) ;
#207 = CARTESIAN_POINT ( 'NONE',  ( 3.625129388746599804E-14, -1.089877906884853222E-15, 10.38278322847273039 ) ) ;
#208 = DIRECTION ( 'NONE',  ( 2.027569434243913511E-30, -1.000000000000000000, 5.807189663845455387E-16 ) ) ;
#209 = AXIS2_PLACEMENT_3D ( 'NONE', #154, #153, #151 ) ;
#210 = DIRECTION ( 'NONE',  ( 2.027569434243913861E-30, -1.000000000000000000, 5.807189663845456373E-16 ) ) ;
#211 = APPLICATION_PROTOCOL_DEFINITION ( 'international standard', 'config_control_design', 1994, #200 ) ;
#212 = APPROVAL_STATUS ( 'not_yet_approved' ) ;
#213 = EDGE_CURVE ( 'NONE', #39, #39, #94, .T. ) ;
#214 = DATE_AND_TIME ( #160, #45 ) ;
#215 = CALENDAR_DATE ( 2021, 26, 11 ) ;
#216 =( GEOMETRIC_REPRESENTATION_CONTEXT ( 3 ) GLOBAL_UNCERTAINTY_ASSIGNED_CONTEXT ( ( #132 ) ) GLOBAL_UNIT_ASSIGNED_CONTEXT ( ( #194, #228, #56 ) ) REPRESENTATION_CONTEXT ( 'NONE', 'WORKASPACE' ) );
#217 = CC_DESIGN_PERSON_AND_ORGANIZATION_ASSIGNMENT ( #67, #47, ( #31 ) ) ;
#218 = ORIENTED_EDGE ( 'NONE', *, *, #54, .F. ) ;
#219 = EDGE_LOOP ( 'NONE', ( #70 ) ) ;
#220 = MANIFOLD_SOLID_BREP ( 'Corps-Déplacer/Copier1[1]', #149 ) ;
#221 = FACE_OUTER_BOUND ( 'NONE', #124, .T. ) ;
#222 = LOCAL_TIME ( 14, 2, 9.000000000000000000, #101 ) ;
#223 = CARTESIAN_POINT ( 'NONE',  ( 3.625129388746600435E-14, 6.029479144633480695E-15, 10.38278322847273216 ) ) ;
#224 = CARTESIAN_POINT ( 'NONE',  ( 2.433562493173664138E-13, 1.499999999999990230, 69.70000000000001705 ) ) ;
#225 = AXIS2_PLACEMENT_3D ( 'NONE', #105, #85, #72 ) ;
#226 = ADVANCED_FACE ( 'NONE', ( #21, #58 ), #206, .T. ) ;
#227 = AXIS2_PLACEMENT_3D ( 'NONE', #165, #71, #52 ) ;
#228 =( NAMED_UNIT ( * ) PLANE_ANGLE_UNIT ( ) SI_UNIT ( $, .RADIAN. ) );
#229 = DIRECTION ( 'NONE',  ( 3.491481338843133355E-15, 5.807189663845456373E-16, 1.000000000000000000 ) ) ;
#230 = FACE_OUTER_BOUND ( 'NONE', #240, .T. ) ;
#231 = CONICAL_SURFACE ( 'NONE', #182, 1.759662432702592483, 0.5235987755982970393 ) ;
#232 = APPROVAL_ROLE ( '' ) ;
#233 = PERSON_AND_ORGANIZATION ( #17, #203 ) ;
#234 = COORDINATED_UNIVERSAL_TIME_OFFSET ( 1, 0, .AHEAD. ) ;
#235 = ADVANCED_FACE ( 'NONE', ( #136 ), #37, .T. ) ;
#236 = CIRCLE ( 'NONE', #41, 1.199999999999997513 ) ;
#237 = CIRCLE ( 'NONE', #186, 1.759662432702592483 ) ;
#238 = EDGE_LOOP ( 'NONE', ( #74 ) ) ;
#239 = EDGE_LOOP ( 'NONE', ( #13 ) ) ;
#240 = EDGE_LOOP ( 'NONE', ( #89 ) ) ;
#241 = PRODUCT_DEFINITION_SHAPE ( 'NONE', 'NONE',  #127 ) ;
#242 = DIRECTION ( 'NONE',  ( -3.491481338843133355E-15, 1.049697256412017316E-16, -1.000000000000000000 ) ) ;
#243 = SECURITY_CLASSIFICATION ( '', '', #99 ) ;
ENDSEC;
END-ISO-10303-21;
