ISO-10303-21;
HEADER;
FILE_DESCRIPTION (( 'STEP AP203' ),
    '1' );
FILE_NAME ('321283.step',
    '2021-11-26T13:02:08',
    ( '' ),
    ( '' ),
    'SwSTEP 2.0',
    'SolidWorks 2019',
    '' );
FILE_SCHEMA (( 'CONFIG_CONTROL_DESIGN' ));
ENDSEC;

DATA;
#1 = CALENDAR_DATE ( 2021, 26, 11 ) ;
#2 = LOCAL_TIME ( 14, 2, 8.000000000000000000, #3 ) ;
#3 = COORDINATED_UNIVERSAL_TIME_OFFSET ( 1, 0, .AHEAD. ) ;
#4 = ORIENTED_EDGE ( 'NONE', *, *, #241, .F. ) ;
#5 = PRODUCT_DEFINITION ( 'UNKNOWN', '', #175, #204 ) ;
#6 = FACE_OUTER_BOUND ( 'NONE', #187, .T. ) ;
#7 = FACE_OUTER_BOUND ( 'NONE', #189, .T. ) ;
#8 = FACE_OUTER_BOUND ( 'NONE', #191, .T. ) ;
#9 = ADVANCED_FACE ( 'NONE', ( #227 ), #36, .T. ) ;
#10 = CLOSED_SHELL ( 'NONE', ( #222, #214, #44, #128, #9 ) ) ;
#11 = AXIS2_PLACEMENT_3D ( 'NONE', #196, #61, #137 ) ;
#12 = DIRECTION ( 'NONE',  ( -3.491481338843133355E-15, 1.049697256412017316E-16, -1.000000000000000000 ) ) ;
#13 = FACE_BOUND ( 'NONE', #129, .T. ) ;
#14 = PERSON_AND_ORGANIZATION_ROLE ( 'design_owner' ) ;
#15 = AXIS2_PLACEMENT_3D ( 'NONE', #198, #12, #116 ) ;
#16 = DATE_AND_TIME ( #106, #23 ) ;
#17 = PERSON_AND_ORGANIZATION ( #160, #125 ) ;
#18 = DATE_AND_TIME ( #185, #226 ) ;
#19 = EDGE_CURVE ( 'NONE', #100, #100, #102, .T. ) ;
#20 = ORIENTED_EDGE ( 'NONE', *, *, #195, .F. ) ;
#21 = CARTESIAN_POINT ( 'NONE',  ( 3.628153100282876677E-14, 1.898999999999998689, 10.39144348251057259 ) ) ;
#22 = ADVANCED_FACE ( 'NONE', ( #171 ), #46, .T. ) ;
#23 = LOCAL_TIME ( 14, 2, 8.000000000000000000, #30 ) ;
#24 = DIRECTION ( 'NONE',  ( -3.491481338843133355E-15, -5.800308690799731424E-16, -1.000000000000000000 ) ) ;
#25 = AXIS2_PLACEMENT_3D ( 'NONE', #136, #99, #193 ) ;
#26 = CARTESIAN_POINT ( 'NONE',  ( 3.628153100282876677E-14, 6.027357994156030607E-15, 10.39144348251057259 ) ) ;
#27 = DIRECTION ( 'NONE',  ( -3.491481338843133355E-15, 1.049697256412017316E-16, -1.000000000000000000 ) ) ;
#28 = AXIS2_PLACEMENT_3D ( 'NONE', #209, #37, #168 ) ;
#29 = CARTESIAN_POINT ( 'NONE',  ( 3.364210793857456207E-30, 5.588877388002667398E-31, 9.635482671581894930E-16 ) ) ;
#30 = COORDINATED_UNIVERSAL_TIME_OFFSET ( 1, 0, .AHEAD. ) ;
#31 = PERSON_AND_ORGANIZATION ( #160, #125 ) ;
#32 = DIRECTION ( 'NONE',  ( 0.0000000000000000000, 0.0000000000000000000, 1.000000000000000000 ) ) ;
#33 = APPLICATION_PROTOCOL_DEFINITION ( 'international standard', 'config_control_design', 1994, #180 ) ;
#34 = APPROVAL_PERSON_ORGANIZATION ( #229, #192, #78 ) ;
#35 = ORIENTED_EDGE ( 'NONE', *, *, #131, .T. ) ;
#36 = PLANE ( 'NONE',  #70 ) ;
#37 = DIRECTION ( 'NONE',  ( -3.491481338843133355E-15, 1.049697256412017316E-16, -1.000000000000000000 ) ) ;
#38 = CALENDAR_DATE ( 2021, 26, 11 ) ;
#39 = ORIENTED_EDGE ( 'NONE', *, *, #50, .T. ) ;
#40 = FACE_OUTER_BOUND ( 'NONE', #188, .T. ) ;
#41 = AXIS2_PLACEMENT_3D ( 'NONE', #236, #82, #83 ) ;
#42 = PRODUCT_DEFINITION_SHAPE ( 'NONE', 'NONE',  #5 ) ;
#43 = DIRECTION ( 'NONE',  ( 0.0000000000000000000, 1.000000000000000000, 0.0000000000000000000 ) ) ;
#44 = ADVANCED_FACE ( 'NONE', ( #40, #158 ), #156, .T. ) ;
#45 = FACE_OUTER_BOUND ( 'NONE', #206, .T. ) ;
#46 = PLANE ( 'NONE',  #163 ) ;
#47 = SECURITY_CLASSIFICATION ( '', '', #201 ) ;
#48 = CARTESIAN_POINT ( 'NONE',  ( 3.628153100282877308E-14, 1.898999999999998689, 10.39144348251057437 ) ) ;
#49 = APPROVAL_PERSON_ORGANIZATION ( #68, #161, #142 ) ;
#50 = EDGE_CURVE ( 'NONE', #101, #101, #119, .T. ) ;
#51 = APPROVAL_STATUS ( 'not_yet_approved' ) ;
#52 = APPLICATION_PROTOCOL_DEFINITION ( 'international standard', 'config_control_design', 1994, #69 ) ;
#53 = COORDINATED_UNIVERSAL_TIME_OFFSET ( 1, 0, .AHEAD. ) ;
#54 = EDGE_LOOP ( 'NONE', ( #232 ) ) ;
#55 = CC_DESIGN_PERSON_AND_ORGANIZATION_ASSIGNMENT ( #31, #148, ( #47 ) ) ;
#56 = EDGE_LOOP ( 'NONE', ( #39 ) ) ;
#57 = FACE_OUTER_BOUND ( 'NONE', #127, .T. ) ;
#58 = ADVANCED_BREP_SHAPE_REPRESENTATION ( '321283', ( #134, #132, #215 ), #190 ) ;
#59 = DIRECTION ( 'NONE',  ( -3.245379579799462179E-30, 1.000000000000000000, -9.134931416412921723E-16 ) ) ;
#60 = CONICAL_SURFACE ( 'NONE', #97, 1.754662432702592589, 0.5235987755982971503 ) ;
#61 = DIRECTION ( 'NONE',  ( -3.491481338843133355E-15, 1.049697256412017316E-16, -1.000000000000000000 ) ) ;
#62 = DIRECTION ( 'NONE',  ( -3.491481338843133355E-15, -5.800308690799731424E-16, -1.000000000000000000 ) ) ;
#63 = FACE_BOUND ( 'NONE', #54, .T. ) ;
#64 = ADVANCED_FACE ( 'NONE', ( #7, #6 ), #139, .T. ) ;
#65 = CC_DESIGN_SECURITY_CLASSIFICATION ( #47, ( #175 ) ) ;
#66 = DATE_TIME_ROLE ( 'creation_date' ) ;
#67 = CARTESIAN_POINT ( 'NONE',  ( 0.0000000000000000000, 0.0000000000000000000, 0.0000000000000000000 ) ) ;
#68 = PERSON_AND_ORGANIZATION ( #160, #125 ) ;
#69 = APPLICATION_CONTEXT ( 'configuration controlled 3d designs of mechanical parts and assemblies' ) ;
#70 = AXIS2_PLACEMENT_3D ( 'NONE', #21, #167, #76 ) ;
#71 = VERTEX_POINT ( 'NONE', #203 ) ;
#72 = PERSON_AND_ORGANIZATION_ROLE ( 'creator' ) ;
#73 = EDGE_LOOP ( 'NONE', ( #79 ) ) ;
#74 = CC_DESIGN_DATE_AND_TIME_ASSIGNMENT ( #182, #66, ( #5 ) ) ;
#75 = CONICAL_SURFACE ( 'NONE', #41, 1.898999999999999799, 0.5235987755982935976 ) ;
#76 = DIRECTION ( 'NONE',  ( 3.664998382197393967E-31, 1.000000000000000000, 1.049697256412017316E-16 ) ) ;
#77 = CC_DESIGN_DATE_AND_TIME_ASSIGNMENT ( #146, #223, ( #47 ) ) ;
#78 = APPROVAL_ROLE ( '' ) ;
#79 = ORIENTED_EDGE ( 'NONE', *, *, #208, .F. ) ;
#80 = ORIENTED_EDGE ( 'NONE', *, *, #108, .T. ) ;
#81 = CARTESIAN_POINT ( 'NONE',  ( 8.728703347107869873E-16, 1.450077172699939019E-16, 0.2500000000000010547 ) ) ;
#82 = DIRECTION ( 'NONE',  ( -3.491481338843133355E-15, 1.049697256412017316E-16, -1.000000000000000000 ) ) ;
#83 = DIRECTION ( 'NONE',  ( 0.0000000000000000000, 1.000000000000000000, 0.0000000000000000000 ) ) ;
#84 = AXIS2_PLACEMENT_3D ( 'NONE', #112, #153, #172 ) ;
#85 = DIRECTION ( 'NONE',  ( -3.491481338843133355E-15, -5.800308690799731424E-16, -1.000000000000000000 ) ) ;
#86 = CARTESIAN_POINT ( 'NONE',  ( 3.628153100282877308E-14, 1.898999999999998689, 10.39144348251057437 ) ) ;
#87 = PERSON_AND_ORGANIZATION ( #160, #125 ) ;
#88 = AXIS2_PLACEMENT_3D ( 'NONE', #235, #211, #105 ) ;
#89 = APPROVAL_DATE_TIME ( #16, #161 ) ;
#90 = CC_DESIGN_PERSON_AND_ORGANIZATION_ASSIGNMENT ( #124, #14, ( #231 ) ) ;
#91 = CALENDAR_DATE ( 2021, 26, 11 ) ;
#92 = APPROVAL_ROLE ( '' ) ;
#93 = EDGE_LOOP ( 'NONE', ( #149 ) ) ;
#94 = AXIS2_PLACEMENT_3D ( 'NONE', #26, #238, #118 ) ;
#95 = ORIENTED_EDGE ( 'NONE', *, *, #19, .F. ) ;
#96 = ORIENTED_EDGE ( 'NONE', *, *, #108, .F. ) ;
#97 = AXIS2_PLACEMENT_3D ( 'NONE', #29, #133, #114 ) ;
#98 = DIRECTION ( 'NONE',  ( -2.025166955345691235E-30, 1.000000000000000000, -5.800308690799731424E-16 ) ) ;
#99 = DIRECTION ( 'NONE',  ( -3.491481338843133355E-15, 1.049697256412017316E-16, -1.000000000000000000 ) ) ;
#100 = VERTEX_POINT ( 'NONE', #86 ) ;
#101 = VERTEX_POINT ( 'NONE', #122 ) ;
#102 = CIRCLE ( 'NONE', #28, 1.898999999999999799 ) ;
#103 = CIRCLE ( 'NONE', #202, 1.499999999999997558 ) ;
#104 = CC_DESIGN_APPROVAL ( #183, ( #5 ) ) ;
#105 = DIRECTION ( 'NONE',  ( -3.664998382197393967E-31, -1.000000000000000000, -1.049697256412017316E-16 ) ) ;
#106 = CALENDAR_DATE ( 2021, 26, 11 ) ;
#107 = VERTEX_POINT ( 'NONE', #221 ) ;
#108 = EDGE_CURVE ( 'NONE', #107, #107, #147, .T. ) ;
#109 = MECHANICAL_CONTEXT ( 'NONE', #69, 'mechanical' ) ;
#110 = AXIS2_PLACEMENT_3D ( 'NONE', #213, #210, #59 ) ;
#111 = ORIENTED_EDGE ( 'NONE', *, *, #131, .F. ) ;
#112 = CARTESIAN_POINT ( 'NONE',  ( 0.0000000000000000000, 0.0000000000000000000, 0.0000000000000000000 ) ) ;
#113 = CC_DESIGN_PERSON_AND_ORGANIZATION_ASSIGNMENT ( #121, #72, ( #5 ) ) ;
#114 = DIRECTION ( 'NONE',  ( 2.025166955345691235E-30, -1.000000000000000000, 5.800308690799731424E-16 ) ) ;
#115 = FACE_BOUND ( 'NONE', #93, .T. ) ;
#116 = DIRECTION ( 'NONE',  ( 0.0000000000000000000, 1.000000000000000000, 0.0000000000000000000 ) ) ;
#117 = CC_DESIGN_PERSON_AND_ORGANIZATION_ASSIGNMENT ( #17, #159, ( #175 ) ) ;
#118 = DIRECTION ( 'NONE',  ( 2.025166955345690885E-30, -1.000000000000000000, 5.800308690799731424E-16 ) ) ;
#119 = CIRCLE ( 'NONE', #205, 1.754662432702592589 ) ;
#120 = CC_DESIGN_APPROVAL ( #192, ( #47 ) ) ;
#121 = PERSON_AND_ORGANIZATION ( #160, #125 ) ;
#122 = CARTESIAN_POINT ( 'NONE',  ( -1.892735826383168144E-31, 1.754662432702592589, -5.421010862427522170E-17 ) ) ;
#123 = VERTEX_POINT ( 'NONE', #48 ) ;
#124 = PERSON_AND_ORGANIZATION ( #160, #125 ) ;
#125 = ORGANIZATION ( 'UNSPECIFIED', 'UNSPECIFIED', '' ) ;
#126 = APPROVAL_STATUS ( 'not_yet_approved' ) ;
#127 = EDGE_LOOP ( 'NONE', ( #4 ) ) ;
#128 = ADVANCED_FACE ( 'NONE', ( #13, #8 ), #75, .T. ) ;
#129 = EDGE_LOOP ( 'NONE', ( #207 ) ) ;
#130 = CIRCLE ( 'NONE', #11, 1.199999999999997513 ) ;
#131 = EDGE_CURVE ( 'NONE', #123, #123, #230, .T. ) ;
#132 = MANIFOLD_SOLID_BREP ( 'Corps-Déplacer/Copier1[2]', #144 ) ;
#133 = DIRECTION ( 'NONE',  ( 3.491481338843133355E-15, 5.800308690799731424E-16, 1.000000000000000000 ) ) ;
#134 = MANIFOLD_SOLID_BREP ( 'Corps-Déplacer/Copier1[1]', #10 ) ;
#135 = AXIS2_PLACEMENT_3D ( 'NONE', #81, #212, #233 ) ;
#136 = CARTESIAN_POINT ( 'NONE',  ( 2.433562493173664138E-13, -7.316389877191761450E-15, 69.70000000000001705 ) ) ;
#137 = DIRECTION ( 'NONE',  ( 0.0000000000000000000, 1.000000000000000000, 0.0000000000000000000 ) ) ;
#138 = CARTESIAN_POINT ( 'NONE',  ( 3.364210793857456207E-30, 5.588877388002667398E-31, 9.635482671581894930E-16 ) ) ;
#139 = CYLINDRICAL_SURFACE ( 'NONE', #186, 1.898999999999995802 ) ;
#140 = LOCAL_TIME ( 14, 2, 8.000000000000000000, #239 ) ;
#141 = APPROVAL_STATUS ( 'not_yet_approved' ) ;
#142 = APPROVAL_ROLE ( '' ) ;
#143 = PERSON_AND_ORGANIZATION ( #160, #125 ) ;
#144 = CLOSED_SHELL ( 'NONE', ( #174, #64, #219, #22 ) ) ;
#145 =( LENGTH_UNIT ( ) NAMED_UNIT ( * ) SI_UNIT ( .MILLI., .METRE. ) );
#146 = DATE_AND_TIME ( #38, #2 ) ;
#147 = CIRCLE ( 'NONE', #135, 1.898999999999998467 ) ;
#148 = PERSON_AND_ORGANIZATION_ROLE ( 'classification_officer' ) ;
#149 = ORIENTED_EDGE ( 'NONE', *, *, #50, .F. ) ;
#150 = EDGE_LOOP ( 'NONE', ( #111 ) ) ;
#151 = DATE_AND_TIME ( #1, #220 ) ;
#152 = ORIENTED_EDGE ( 'NONE', *, *, #241, .T. ) ;
#153 = DIRECTION ( 'NONE',  ( -3.491481338843133355E-15, 1.049697256412017316E-16, -1.000000000000000000 ) ) ;
#154 = PLANE ( 'NONE',  #94 ) ;
#155 = CONICAL_SURFACE ( 'NONE', #25, 1.499999999999997558, 0.7853981633974573828 ) ;
#156 = CYLINDRICAL_SURFACE ( 'NONE', #84, 1.499999999999995337 ) ;
#157 = CARTESIAN_POINT ( 'NONE',  ( 0.0000000000000000000, 0.0000000000000000000, 0.0000000000000000000 ) ) ;
#158 = FACE_OUTER_BOUND ( 'NONE', #73, .T. ) ;
#159 = PERSON_AND_ORGANIZATION_ROLE ( 'creator' ) ;
#160 = PERSON ( 'UNSPECIFIED', 'UNSPECIFIED', 'UNSPECIFIED', ('UNSPECIFIED'), ('UNSPECIFIED'), ('UNSPECIFIED') ) ;
#161 = APPROVAL ( #141, 'UNSPECIFIED' ) ;
#162 =( NAMED_UNIT ( * ) PLANE_ANGLE_UNIT ( ) SI_UNIT ( $, .RADIAN. ) );
#163 = AXIS2_PLACEMENT_3D ( 'NONE', #176, #85, #173 ) ;
#164 = COORDINATED_UNIVERSAL_TIME_OFFSET ( 1, 0, .AHEAD. ) ;
#165 = SHAPE_DEFINITION_REPRESENTATION ( #42, #58 ) ;
#166 = EDGE_LOOP ( 'NONE', ( #20 ) ) ;
#167 = DIRECTION ( 'NONE',  ( -3.491481338843133355E-15, 1.049697256412017316E-16, -1.000000000000000000 ) ) ;
#168 = DIRECTION ( 'NONE',  ( 0.0000000000000000000, 1.000000000000000000, 0.0000000000000000000 ) ) ;
#169 = EDGE_LOOP ( 'NONE', ( #224 ) ) ;
#170 = APPROVAL_PERSON_ORGANIZATION ( #87, #183, #92 ) ;
#171 = FACE_OUTER_BOUND ( 'NONE', #56, .T. ) ;
#172 = DIRECTION ( 'NONE',  ( 3.664998382197393967E-31, 1.000000000000000000, 1.049697256412017316E-16 ) ) ;
#173 = DIRECTION ( 'NONE',  ( -2.025166955345690885E-30, 1.000000000000000000, -5.800308690799731424E-16 ) ) ;
#174 = ADVANCED_FACE ( 'NONE', ( #237 ), #154, .T. ) ;
#175 = PRODUCT_DEFINITION_FORMATION_WITH_SPECIFIED_SOURCE ( 'ANY', '', #231, .NOT_KNOWN. ) ;
#176 = CARTESIAN_POINT ( 'NONE',  ( -1.871378979567044217E-30, 1.754662432702592589, -5.359842422033699682E-16 ) ) ;
#177 = CARTESIAN_POINT ( 'NONE',  ( 2.433562493173664138E-13, -7.316389877191761450E-15, 69.70000000000001705 ) ) ;
#178 = PRODUCT_RELATED_PRODUCT_CATEGORY ( 'detail', '', ( #231 ) ) ;
#179 = DIRECTION ( 'NONE',  ( 1.000000000000000000, 0.0000000000000000000, 0.0000000000000000000 ) ) ;
#180 = APPLICATION_CONTEXT ( 'configuration controlled 3d designs of mechanical parts and assemblies' ) ;
#181 = CIRCLE ( 'NONE', #15, 1.499999999999992673 ) ;
#182 = DATE_AND_TIME ( #91, #140 ) ;
#183 = APPROVAL ( #51, 'UNSPECIFIED' ) ;
#184 = CARTESIAN_POINT ( 'NONE',  ( 3.869445280877825814E-14, 1.499999999999991562, 11.08253175473057794 ) ) ;
#185 = CALENDAR_DATE ( 2021, 26, 11 ) ;
#186 = AXIS2_PLACEMENT_3D ( 'NONE', #157, #62, #216 ) ;
#187 = EDGE_LOOP ( 'NONE', ( #96 ) ) ;
#188 = EDGE_LOOP ( 'NONE', ( #152 ) ) ;
#189 = EDGE_LOOP ( 'NONE', ( #35 ) ) ;
#190 =( GEOMETRIC_REPRESENTATION_CONTEXT ( 3 ) GLOBAL_UNCERTAINTY_ASSIGNED_CONTEXT ( ( #225 ) ) GLOBAL_UNIT_ASSIGNED_CONTEXT ( ( #145, #162, #218 ) ) REPRESENTATION_CONTEXT ( 'NONE', 'WORKASPACE' ) );
#191 = EDGE_LOOP ( 'NONE', ( #95 ) ) ;
#192 = APPROVAL ( #126, 'UNSPECIFIED' ) ;
#193 = DIRECTION ( 'NONE',  ( 0.0000000000000000000, 1.000000000000000000, 0.0000000000000000000 ) ) ;
#194 = FACE_OUTER_BOUND ( 'NONE', #166, .T. ) ;
#195 = EDGE_CURVE ( 'NONE', #71, #71, #130, .T. ) ;
#196 = CARTESIAN_POINT ( 'NONE',  ( 2.444036937190193601E-13, -7.347880794884121511E-15, 70.00000000000000000 ) ) ;
#197 = PLANE ( 'NONE',  #88 ) ;
#198 = CARTESIAN_POINT ( 'NONE',  ( 3.869445280877825814E-14, -1.163330317703974832E-15, 11.08253175473057794 ) ) ;
#199 = VERTEX_POINT ( 'NONE', #217 ) ;
#200 = VERTEX_POINT ( 'NONE', #184 ) ;
#201 = SECURITY_CLASSIFICATION_LEVEL ( 'unclassified' ) ;
#202 = AXIS2_PLACEMENT_3D ( 'NONE', #177, #27, #43 ) ;
#203 = CARTESIAN_POINT ( 'NONE',  ( 2.444036937190193601E-13, 1.199999999999990186, 70.00000000000000000 ) ) ;
#204 = DESIGN_CONTEXT ( 'detailed design', #180, 'design' ) ;
#205 = AXIS2_PLACEMENT_3D ( 'NONE', #138, #24, #98 ) ;
#206 = EDGE_LOOP ( 'NONE', ( #80 ) ) ;
#207 = ORIENTED_EDGE ( 'NONE', *, *, #208, .T. ) ;
#208 = EDGE_CURVE ( 'NONE', #200, #200, #181, .T. ) ;
#209 = CARTESIAN_POINT ( 'NONE',  ( 3.628153100282877308E-14, -1.090786971375188749E-15, 10.39144348251057437 ) ) ;
#210 = DIRECTION ( 'NONE',  ( -3.491481338843133355E-15, -5.800308690799731424E-16, -1.000000000000000000 ) ) ;
#211 = DIRECTION ( 'NONE',  ( 3.491481338843133355E-15, -1.049697256412017316E-16, 1.000000000000000000 ) ) ;
#212 = DIRECTION ( 'NONE',  ( -3.491481338843133355E-15, -5.800308690799731424E-16, -1.000000000000000000 ) ) ;
#213 = CARTESIAN_POINT ( 'NONE',  ( 3.628153100282877939E-14, 6.027357994156032973E-15, 10.39144348251057615 ) ) ;
#214 = ADVANCED_FACE ( 'NONE', ( #63, #57 ), #155, .T. ) ;
#215 = AXIS2_PLACEMENT_3D ( 'NONE', #67, #32, #179 ) ;
#216 = DIRECTION ( 'NONE',  ( -2.025166955345690885E-30, 1.000000000000000000, -5.800308690799731424E-16 ) ) ;
#217 = CARTESIAN_POINT ( 'NONE',  ( 2.433562493173664138E-13, 1.499999999999990230, 69.70000000000001705 ) ) ;
#218 =( NAMED_UNIT ( * ) SI_UNIT ( $, .STERADIAN. ) SOLID_ANGLE_UNIT ( ) );
#219 = ADVANCED_FACE ( 'NONE', ( #45, #115 ), #60, .T. ) ;
#220 = LOCAL_TIME ( 14, 2, 8.000000000000000000, #53 ) ;
#221 = CARTESIAN_POINT ( 'NONE',  ( 8.728703347107831416E-16, 1.898999999999998689, 0.2499999999999999445 ) ) ;
#222 = ADVANCED_FACE ( 'NONE', ( #194 ), #197, .T. ) ;
#223 = DATE_TIME_ROLE ( 'classification_date' ) ;
#224 = ORIENTED_EDGE ( 'NONE', *, *, #19, .T. ) ;
#225 = UNCERTAINTY_MEASURE_WITH_UNIT (LENGTH_MEASURE( 1.000000000000000082E-05 ), #145, 'distance_accuracy_value', 'NONE');
#226 = LOCAL_TIME ( 14, 2, 8.000000000000000000, #164 ) ;
#227 = FACE_OUTER_BOUND ( 'NONE', #169, .T. ) ;
#228 = APPROVAL_DATE_TIME ( #151, #192 ) ;
#229 = PERSON_AND_ORGANIZATION ( #160, #125 ) ;
#230 = CIRCLE ( 'NONE', #110, 1.898999999999992694 ) ;
#231 = PRODUCT ( '321283', '321283', '', ( #109 ) ) ;
#232 = ORIENTED_EDGE ( 'NONE', *, *, #195, .T. ) ;
#233 = DIRECTION ( 'NONE',  ( -2.028362237374657556E-30, 1.000000000000000000, -5.709332135258058328E-16 ) ) ;
#234 = CC_DESIGN_PERSON_AND_ORGANIZATION_ASSIGNMENT ( #143, #240, ( #175 ) ) ;
#235 = CARTESIAN_POINT ( 'NONE',  ( 2.444036937190193601E-13, -7.347880794884121511E-15, 70.00000000000000000 ) ) ;
#236 = CARTESIAN_POINT ( 'NONE',  ( 3.628153100282877308E-14, -1.090786971375188749E-15, 10.39144348251057437 ) ) ;
#237 = FACE_OUTER_BOUND ( 'NONE', #150, .T. ) ;
#238 = DIRECTION ( 'NONE',  ( 3.491481338843133355E-15, 5.800308690799731424E-16, 1.000000000000000000 ) ) ;
#239 = COORDINATED_UNIVERSAL_TIME_OFFSET ( 1, 0, .AHEAD. ) ;
#240 = PERSON_AND_ORGANIZATION_ROLE ( 'design_supplier' ) ;
#241 = EDGE_CURVE ( 'NONE', #199, #199, #103, .T. ) ;
#242 = CC_DESIGN_APPROVAL ( #161, ( #175 ) ) ;
#243 = APPROVAL_DATE_TIME ( #18, #183 ) ;
ENDSEC;
END-ISO-10303-21;
