ISO-10303-21;
HEADER;
FILE_DESCRIPTION (( 'STEP AP203' ),
    '1' );
FILE_NAME ('321282.step',
    '2021-11-26T13:02:08',
    ( '' ),
    ( '' ),
    'SwSTEP 2.0',
    'SolidWorks 2019',
    '' );
FILE_SCHEMA (( 'CONFIG_CONTROL_DESIGN' ));
ENDSEC;

DATA;
#1 = DATE_AND_TIME ( #227, #242 ) ;
#2 = PERSON_AND_ORGANIZATION ( #167, #118 ) ;
#3 = EDGE_LOOP ( 'NONE', ( #203 ) ) ;
#4 = CIRCLE ( 'NONE', #183, 1.893999999999998352 ) ;
#5 = PRODUCT ( '321282', '321282', '', ( #185 ) ) ;
#6 = FACE_OUTER_BOUND ( 'NONE', #3, .T. ) ;
#7 = DIRECTION ( 'NONE',  ( 0.0000000000000000000, 1.000000000000000000, 0.0000000000000000000 ) ) ;
#8 =( GEOMETRIC_REPRESENTATION_CONTEXT ( 3 ) GLOBAL_UNCERTAINTY_ASSIGNED_CONTEXT ( ( #239 ) ) GLOBAL_UNIT_ASSIGNED_CONTEXT ( ( #144, #37, #14 ) ) REPRESENTATION_CONTEXT ( 'NONE', 'WORKASPACE' ) );
#9 = DIRECTION ( 'NONE',  ( -2.022768477576322545E-30, 1.000000000000000000, -5.793439177442506116E-16 ) ) ;
#10 = CARTESIAN_POINT ( 'NONE',  ( 3.869445280877825814E-14, -1.163330317703974832E-15, 11.08253175473057794 ) ) ;
#11 = VERTEX_POINT ( 'NONE', #240 ) ;
#12 = LOCAL_TIME ( 14, 2, 8.000000000000000000, #121 ) ;
#13 = VERTEX_POINT ( 'NONE', #100 ) ;
#14 =( NAMED_UNIT ( * ) SI_UNIT ( $, .STERADIAN. ) SOLID_ANGLE_UNIT ( ) );
#15 = VERTEX_POINT ( 'NONE', #16 ) ;
#16 = CARTESIAN_POINT ( 'NONE',  ( 8.728703347107831416E-16, 1.893999999999998574, 0.2499999999999999445 ) ) ;
#17 = EDGE_LOOP ( 'NONE', ( #87 ) ) ;
#18 = CLOSED_SHELL ( 'NONE', ( #73, #67, #212, #63, #46 ) ) ;
#19 = EDGE_LOOP ( 'NONE', ( #189 ) ) ;
#20 = ORIENTED_EDGE ( 'NONE', *, *, #154, .F. ) ;
#21 = APPROVAL ( #184, 'UNSPECIFIED' ) ;
#22 = CIRCLE ( 'NONE', #80, 1.499999999999997558 ) ;
#23 = EDGE_LOOP ( 'NONE', ( #207 ) ) ;
#24 = DIRECTION ( 'NONE',  ( 3.491481338843133355E-15, 5.793439177442507102E-16, 1.000000000000000000 ) ) ;
#25 = DIRECTION ( 'NONE',  ( -2.022768477576322545E-30, 1.000000000000000000, -5.793439177442507102E-16 ) ) ;
#26 = DIRECTION ( 'NONE',  ( 0.0000000000000000000, 1.000000000000000000, 0.0000000000000000000 ) ) ;
#27 = AXIS2_PLACEMENT_3D ( 'NONE', #90, #79, #136 ) ;
#28 = DIRECTION ( 'NONE',  ( -2.022768477576322545E-30, 1.000000000000000000, -5.793439177442507102E-16 ) ) ;
#29 = FACE_BOUND ( 'NONE', #173, .T. ) ;
#30 = CC_DESIGN_PERSON_AND_ORGANIZATION_ASSIGNMENT ( #206, #107, ( #49 ) ) ;
#31 = PERSON_AND_ORGANIZATION ( #167, #118 ) ;
#32 = AXIS2_PLACEMENT_3D ( 'NONE', #191, #178, #7 ) ;
#33 = DIRECTION ( 'NONE',  ( 2.022768477576322545E-30, -1.000000000000000000, 5.793439177442507102E-16 ) ) ;
#34 = ADVANCED_FACE ( 'NONE', ( #149 ), #45, .T. ) ;
#35 = DATE_TIME_ROLE ( 'creation_date' ) ;
#36 = CALENDAR_DATE ( 2021, 26, 11 ) ;
#37 =( NAMED_UNIT ( * ) PLANE_ANGLE_UNIT ( ) SI_UNIT ( $, .RADIAN. ) );
#38 = COORDINATED_UNIVERSAL_TIME_OFFSET ( 1, 0, .AHEAD. ) ;
#39 = AXIS2_PLACEMENT_3D ( 'NONE', #84, #163, #33 ) ;
#40 = CIRCLE ( 'NONE', #137, 1.893999999999992578 ) ;
#41 = PLANE ( 'NONE',  #219 ) ;
#42 = CARTESIAN_POINT ( 'NONE',  ( 0.0000000000000000000, 0.0000000000000000000, 0.0000000000000000000 ) ) ;
#43 = FACE_OUTER_BOUND ( 'NONE', #23, .T. ) ;
#44 = MANIFOLD_SOLID_BREP ( 'Corps-Déplacer/Copier1[1]', #18 ) ;
#45 = PLANE ( 'NONE',  #213 ) ;
#46 = ADVANCED_FACE ( 'NONE', ( #138 ), #41, .T. ) ;
#47 = PERSON_AND_ORGANIZATION_ROLE ( 'creator' ) ;
#48 = APPROVAL_ROLE ( '' ) ;
#49 = PRODUCT_DEFINITION_FORMATION_WITH_SPECIFIED_SOURCE ( 'ANY', '', #5, .NOT_KNOWN. ) ;
#50 = EDGE_LOOP ( 'NONE', ( #230 ) ) ;
#51 = PERSON_AND_ORGANIZATION ( #167, #118 ) ;
#52 = EDGE_LOOP ( 'NONE', ( #124 ) ) ;
#53 = CLOSED_SHELL ( 'NONE', ( #217, #176, #94, #34 ) ) ;
#54 = APPROVAL ( #221, 'UNSPECIFIED' ) ;
#55 = AXIS2_PLACEMENT_3D ( 'NONE', #211, #93, #233 ) ;
#56 = CARTESIAN_POINT ( 'NONE',  ( 3.349888432631992065E-30, 5.558493087092394038E-31, 9.594461798675809585E-16 ) ) ;
#57 = CARTESIAN_POINT ( 'NONE',  ( 3.631176811819155444E-14, 1.893999999999998574, 10.40010373654842013 ) ) ;
#58 = FACE_OUTER_BOUND ( 'NONE', #86, .T. ) ;
#59 = EDGE_CURVE ( 'NONE', #15, #15, #4, .T. ) ;
#60 = DIRECTION ( 'NONE',  ( -3.491481338843133355E-15, 1.049697256412017316E-16, -1.000000000000000000 ) ) ;
#61 = AXIS2_PLACEMENT_3D ( 'NONE', #42, #214, #28 ) ;
#62 = ADVANCED_BREP_SHAPE_REPRESENTATION ( '321282', ( #44, #128, #76 ), #8 ) ;
#63 = ADVANCED_FACE ( 'NONE', ( #195, #91 ), #209, .T. ) ;
#64 = CALENDAR_DATE ( 2021, 26, 11 ) ;
#65 = AXIS2_PLACEMENT_3D ( 'NONE', #152, #181, #112 ) ;
#66 = PERSON_AND_ORGANIZATION_ROLE ( 'design_owner' ) ;
#67 = ADVANCED_FACE ( 'NONE', ( #193, #58 ), #68, .T. ) ;
#68 = CONICAL_SURFACE ( 'NONE', #27, 1.499999999999997558, 0.7853981633974573828 ) ;
#69 = EDGE_LOOP ( 'NONE', ( #72 ) ) ;
#70 = EDGE_CURVE ( 'NONE', #223, #223, #174, .T. ) ;
#71 = CALENDAR_DATE ( 2021, 26, 11 ) ;
#72 = ORIENTED_EDGE ( 'NONE', *, *, #159, .F. ) ;
#73 = ADVANCED_FACE ( 'NONE', ( #116 ), #77, .T. ) ;
#74 = CYLINDRICAL_SURFACE ( 'NONE', #65, 1.499999999999995337 ) ;
#75 = DIRECTION ( 'NONE',  ( 3.491481338843133355E-15, -1.049697256412017316E-16, 1.000000000000000000 ) ) ;
#76 = AXIS2_PLACEMENT_3D ( 'NONE', #162, #243, #200 ) ;
#77 = PLANE ( 'NONE',  #150 ) ;
#78 = CARTESIAN_POINT ( 'NONE',  ( 2.433562493173664138E-13, -7.316389877191761450E-15, 69.70000000000001705 ) ) ;
#79 = DIRECTION ( 'NONE',  ( -3.491481338843133355E-15, 1.049697256412017316E-16, -1.000000000000000000 ) ) ;
#80 = AXIS2_PLACEMENT_3D ( 'NONE', #78, #97, #192 ) ;
#81 = PRODUCT_RELATED_PRODUCT_CATEGORY ( 'detail', '', ( #5 ) ) ;
#82 = CALENDAR_DATE ( 2021, 26, 11 ) ;
#83 = CC_DESIGN_APPROVAL ( #21, ( #196 ) ) ;
#84 = CARTESIAN_POINT ( 'NONE',  ( 3.631176811819155444E-14, 6.025236843678581307E-15, 10.40010373654842013 ) ) ;
#85 = COORDINATED_UNIVERSAL_TIME_OFFSET ( 1, 0, .AHEAD. ) ;
#86 = EDGE_LOOP ( 'NONE', ( #20 ) ) ;
#87 = ORIENTED_EDGE ( 'NONE', *, *, #132, .F. ) ;
#88 = EDGE_LOOP ( 'NONE', ( #228 ) ) ;
#89 = CONICAL_SURFACE ( 'NONE', #164, 1.749662432702592474, 0.5235987755982971503 ) ;
#90 = CARTESIAN_POINT ( 'NONE',  ( 2.433562493173664138E-13, -7.316389877191761450E-15, 69.70000000000001705 ) ) ;
#91 = FACE_OUTER_BOUND ( 'NONE', #88, .T. ) ;
#92 = CIRCLE ( 'NONE', #179, 1.749662432702592474 ) ;
#93 = DIRECTION ( 'NONE',  ( -3.491481338843133355E-15, 1.049697256412017316E-16, -1.000000000000000000 ) ) ;
#94 = ADVANCED_FACE ( 'NONE', ( #43, #29 ), #89, .T. ) ;
#95 = PRODUCT_DEFINITION_SHAPE ( 'NONE', 'NONE',  #196 ) ;
#96 = FACE_OUTER_BOUND ( 'NONE', #50, .T. ) ;
#97 = DIRECTION ( 'NONE',  ( -3.491481338843133355E-15, 1.049697256412017316E-16, -1.000000000000000000 ) ) ;
#98 = CC_DESIGN_PERSON_AND_ORGANIZATION_ASSIGNMENT ( #2, #126, ( #49 ) ) ;
#99 = DATE_AND_TIME ( #64, #105 ) ;
#100 = CARTESIAN_POINT ( 'NONE',  ( 3.631176811819155444E-14, 1.893999999999998574, 10.40010373654842013 ) ) ;
#101 = PERSON_AND_ORGANIZATION ( #167, #118 ) ;
#102 = VERTEX_POINT ( 'NONE', #141 ) ;
#103 = CARTESIAN_POINT ( 'NONE',  ( 2.444036937190193601E-13, 1.199999999999990186, 70.00000000000000000 ) ) ;
#104 = APPROVAL_DATE_TIME ( #188, #120 ) ;
#105 = LOCAL_TIME ( 14, 2, 8.000000000000000000, #241 ) ;
#106 = SECURITY_CLASSIFICATION_LEVEL ( 'unclassified' ) ;
#107 = PERSON_AND_ORGANIZATION_ROLE ( 'design_supplier' ) ;
#108 = ORIENTED_EDGE ( 'NONE', *, *, #70, .T. ) ;
#109 = EDGE_CURVE ( 'NONE', #13, #13, #110, .T. ) ;
#110 = CIRCLE ( 'NONE', #55, 1.893999999999999684 ) ;
#111 = DIRECTION ( 'NONE',  ( -3.491481338843133355E-15, 1.049697256412017316E-16, -1.000000000000000000 ) ) ;
#112 = DIRECTION ( 'NONE',  ( 3.664998382197393967E-31, 1.000000000000000000, 1.049697256412017316E-16 ) ) ;
#113 = DIRECTION ( 'NONE',  ( -3.491481338843133355E-15, -5.793439177442507102E-16, -1.000000000000000000 ) ) ;
#114 = CC_DESIGN_SECURITY_CLASSIFICATION ( #238, ( #49 ) ) ;
#115 = DIRECTION ( 'NONE',  ( -3.491481338843133355E-15, -5.793439177442507102E-16, -1.000000000000000000 ) ) ;
#116 = FACE_OUTER_BOUND ( 'NONE', #52, .T. ) ;
#117 = APPROVAL_ROLE ( '' ) ;
#118 = ORGANIZATION ( 'UNSPECIFIED', 'UNSPECIFIED', '' ) ;
#119 = COORDINATED_UNIVERSAL_TIME_OFFSET ( 1, 0, .AHEAD. ) ;
#120 = APPROVAL ( #225, 'UNSPECIFIED' ) ;
#121 = COORDINATED_UNIVERSAL_TIME_OFFSET ( 1, 0, .AHEAD. ) ;
#122 = FACE_OUTER_BOUND ( 'NONE', #69, .T. ) ;
#123 = APPROVAL_PERSON_ORGANIZATION ( #51, #120, #202 ) ;
#124 = ORIENTED_EDGE ( 'NONE', *, *, #70, .F. ) ;
#125 = CC_DESIGN_PERSON_AND_ORGANIZATION_ASSIGNMENT ( #139, #66, ( #5 ) ) ;
#126 = PERSON_AND_ORGANIZATION_ROLE ( 'creator' ) ;
#127 = EDGE_LOOP ( 'NONE', ( #226 ) ) ;
#128 = MANIFOLD_SOLID_BREP ( 'Corps-Déplacer/Copier1[2]', #53 ) ;
#129 = LOCAL_TIME ( 14, 2, 8.000000000000000000, #38 ) ;
#130 = EDGE_LOOP ( 'NONE', ( #170 ) ) ;
#131 = SHAPE_DEFINITION_REPRESENTATION ( #95, #62 ) ;
#132 = EDGE_CURVE ( 'NONE', #102, #102, #190, .T. ) ;
#133 = FACE_OUTER_BOUND ( 'NONE', #17, .T. ) ;
#134 = DIRECTION ( 'NONE',  ( -3.491481338843133355E-15, -5.793439177442507102E-16, -1.000000000000000000 ) ) ;
#135 = CARTESIAN_POINT ( 'NONE',  ( 3.349888432631992065E-30, 5.558493087092394038E-31, 9.594461798675809585E-16 ) ) ;
#136 = DIRECTION ( 'NONE',  ( 0.0000000000000000000, 1.000000000000000000, 0.0000000000000000000 ) ) ;
#137 = AXIS2_PLACEMENT_3D ( 'NONE', #157, #177, #236 ) ;
#138 = FACE_OUTER_BOUND ( 'NONE', #130, .T. ) ;
#139 = PERSON_AND_ORGANIZATION ( #167, #118 ) ;
#140 = EDGE_CURVE ( 'NONE', #142, #142, #92, .T. ) ;
#141 = CARTESIAN_POINT ( 'NONE',  ( 3.869445280877825814E-14, 1.499999999999991562, 11.08253175473057794 ) ) ;
#142 = VERTEX_POINT ( 'NONE', #218 ) ;
#143 = DATE_AND_TIME ( #82, #161 ) ;
#144 =( LENGTH_UNIT ( ) NAMED_UNIT ( * ) SI_UNIT ( .MILLI., .METRE. ) );
#145 = PERSON_AND_ORGANIZATION ( #167, #118 ) ;
#146 = CC_DESIGN_APPROVAL ( #54, ( #49 ) ) ;
#147 = APPROVAL_DATE_TIME ( #172, #54 ) ;
#148 = PERSON_AND_ORGANIZATION_ROLE ( 'classification_officer' ) ;
#149 = FACE_OUTER_BOUND ( 'NONE', #127, .T. ) ;
#150 = AXIS2_PLACEMENT_3D ( 'NONE', #237, #75, #234 ) ;
#151 = CC_DESIGN_DATE_AND_TIME_ASSIGNMENT ( #143, #35, ( #196 ) ) ;
#152 = CARTESIAN_POINT ( 'NONE',  ( 0.0000000000000000000, 0.0000000000000000000, 0.0000000000000000000 ) ) ;
#153 = CARTESIAN_POINT ( 'NONE',  ( 8.728703347107869873E-16, 1.448359794360632692E-16, 0.2500000000000010547 ) ) ;
#154 = EDGE_CURVE ( 'NONE', #201, #201, #22, .T. ) ;
#155 = DIRECTION ( 'NONE',  ( -3.491481338843133355E-15, 1.049697256412017316E-16, -1.000000000000000000 ) ) ;
#156 = APPLICATION_CONTEXT ( 'configuration controlled 3d designs of mechanical parts and assemblies' ) ;
#157 = CARTESIAN_POINT ( 'NONE',  ( 3.631176811819156075E-14, 6.025236843678582885E-15, 10.40010373654842191 ) ) ;
#158 = DIRECTION ( 'NONE',  ( 3.664998382197393967E-31, 1.000000000000000000, 1.049697256412017316E-16 ) ) ;
#159 = EDGE_CURVE ( 'NONE', #11, #11, #40, .T. ) ;
#160 = APPLICATION_CONTEXT ( 'configuration controlled 3d designs of mechanical parts and assemblies' ) ;
#161 = LOCAL_TIME ( 14, 2, 8.000000000000000000, #119 ) ;
#162 = CARTESIAN_POINT ( 'NONE',  ( 0.0000000000000000000, 0.0000000000000000000, 0.0000000000000000000 ) ) ;
#163 = DIRECTION ( 'NONE',  ( 3.491481338843133355E-15, 5.793439177442507102E-16, 1.000000000000000000 ) ) ;
#164 = AXIS2_PLACEMENT_3D ( 'NONE', #135, #24, #208 ) ;
#165 = PLANE ( 'NONE',  #39 ) ;
#166 = CARTESIAN_POINT ( 'NONE',  ( 2.433562493173664138E-13, 1.499999999999990230, 69.70000000000001705 ) ) ;
#167 = PERSON ( 'UNSPECIFIED', 'UNSPECIFIED', 'UNSPECIFIED', ('UNSPECIFIED'), ('UNSPECIFIED'), ('UNSPECIFIED') ) ;
#168 = APPROVAL_PERSON_ORGANIZATION ( #31, #21, #117 ) ;
#169 = ORIENTED_EDGE ( 'NONE', *, *, #59, .F. ) ;
#170 = ORIENTED_EDGE ( 'NONE', *, *, #109, .T. ) ;
#171 = CC_DESIGN_PERSON_AND_ORGANIZATION_ASSIGNMENT ( #220, #47, ( #196 ) ) ;
#172 = DATE_AND_TIME ( #36, #12 ) ;
#173 = EDGE_LOOP ( 'NONE', ( #224 ) ) ;
#174 = CIRCLE ( 'NONE', #186, 1.199999999999997513 ) ;
#175 = EDGE_LOOP ( 'NONE', ( #108 ) ) ;
#176 = ADVANCED_FACE ( 'NONE', ( #6, #182 ), #210, .T. ) ;
#177 = DIRECTION ( 'NONE',  ( -3.491481338843133355E-15, -5.793439177442507102E-16, -1.000000000000000000 ) ) ;
#178 = DIRECTION ( 'NONE',  ( -3.491481338843133355E-15, 1.049697256412017316E-16, -1.000000000000000000 ) ) ;
#179 = AXIS2_PLACEMENT_3D ( 'NONE', #56, #134, #9 ) ;
#180 = DIRECTION ( 'NONE',  ( 0.0000000000000000000, 1.000000000000000000, 0.0000000000000000000 ) ) ;
#181 = DIRECTION ( 'NONE',  ( -3.491481338843133355E-15, 1.049697256412017316E-16, -1.000000000000000000 ) ) ;
#182 = FACE_OUTER_BOUND ( 'NONE', #187, .T. ) ;
#183 = AXIS2_PLACEMENT_3D ( 'NONE', #153, #113, #232 ) ;
#184 = APPROVAL_STATUS ( 'not_yet_approved' ) ;
#185 = MECHANICAL_CONTEXT ( 'NONE', #156, 'mechanical' ) ;
#186 = AXIS2_PLACEMENT_3D ( 'NONE', #197, #155, #26 ) ;
#187 = EDGE_LOOP ( 'NONE', ( #169 ) ) ;
#188 = DATE_AND_TIME ( #71, #129 ) ;
#189 = ORIENTED_EDGE ( 'NONE', *, *, #132, .T. ) ;
#190 = CIRCLE ( 'NONE', #194, 1.499999999999992673 ) ;
#191 = CARTESIAN_POINT ( 'NONE',  ( 3.631176811819155444E-14, -1.091696035865524670E-15, 10.40010373654842013 ) ) ;
#192 = DIRECTION ( 'NONE',  ( 0.0000000000000000000, 1.000000000000000000, 0.0000000000000000000 ) ) ;
#193 = FACE_BOUND ( 'NONE', #175, .T. ) ;
#194 = AXIS2_PLACEMENT_3D ( 'NONE', #10, #60, #180 ) ;
#195 = FACE_BOUND ( 'NONE', #19, .T. ) ;
#196 = PRODUCT_DEFINITION ( 'UNKNOWN', '', #49, #222 ) ;
#197 = CARTESIAN_POINT ( 'NONE',  ( 2.444036937190193601E-13, -7.347880794884121511E-15, 70.00000000000000000 ) ) ;
#198 = APPLICATION_PROTOCOL_DEFINITION ( 'international standard', 'config_control_design', 1994, #156 ) ;
#199 = APPROVAL_DATE_TIME ( #99, #21 ) ;
#200 = DIRECTION ( 'NONE',  ( 1.000000000000000000, 0.0000000000000000000, 0.0000000000000000000 ) ) ;
#201 = VERTEX_POINT ( 'NONE', #166 ) ;
#202 = APPROVAL_ROLE ( '' ) ;
#203 = ORIENTED_EDGE ( 'NONE', *, *, #159, .T. ) ;
#204 = DATE_TIME_ROLE ( 'classification_date' ) ;
#205 = APPROVAL_PERSON_ORGANIZATION ( #101, #54, #48 ) ;
#206 = PERSON_AND_ORGANIZATION ( #167, #118 ) ;
#207 = ORIENTED_EDGE ( 'NONE', *, *, #59, .T. ) ;
#208 = DIRECTION ( 'NONE',  ( 2.022768477576322195E-30, -1.000000000000000000, 5.793439177442506116E-16 ) ) ;
#209 = CONICAL_SURFACE ( 'NONE', #32, 1.893999999999999684, 0.5235987755982938197 ) ;
#210 = CYLINDRICAL_SURFACE ( 'NONE', #61, 1.893999999999995465 ) ;
#211 = CARTESIAN_POINT ( 'NONE',  ( 3.631176811819155444E-14, -1.091696035865524670E-15, 10.40010373654842013 ) ) ;
#212 = ADVANCED_FACE ( 'NONE', ( #96, #133 ), #74, .T. ) ;
#213 = AXIS2_PLACEMENT_3D ( 'NONE', #215, #115, #25 ) ;
#214 = DIRECTION ( 'NONE',  ( -3.491481338843133355E-15, -5.793439177442507102E-16, -1.000000000000000000 ) ) ;
#215 = CARTESIAN_POINT ( 'NONE',  ( -1.864217798954312146E-30, 1.749662432702592474, -5.339331985580657010E-16 ) ) ;
#216 = APPLICATION_PROTOCOL_DEFINITION ( 'international standard', 'config_control_design', 1994, #160 ) ;
#217 = ADVANCED_FACE ( 'NONE', ( #122 ), #165, .T. ) ;
#218 = CARTESIAN_POINT ( 'NONE',  ( -1.892735826383161356E-31, 1.749662432702592474, -5.421010862427522170E-17 ) ) ;
#219 = AXIS2_PLACEMENT_3D ( 'NONE', #57, #111, #158 ) ;
#220 = PERSON_AND_ORGANIZATION ( #167, #118 ) ;
#221 = APPROVAL_STATUS ( 'not_yet_approved' ) ;
#222 = DESIGN_CONTEXT ( 'detailed design', #160, 'design' ) ;
#223 = VERTEX_POINT ( 'NONE', #103 ) ;
#224 = ORIENTED_EDGE ( 'NONE', *, *, #140, .F. ) ;
#225 = APPROVAL_STATUS ( 'not_yet_approved' ) ;
#226 = ORIENTED_EDGE ( 'NONE', *, *, #140, .T. ) ;
#227 = CALENDAR_DATE ( 2021, 26, 11 ) ;
#228 = ORIENTED_EDGE ( 'NONE', *, *, #109, .F. ) ;
#229 = CC_DESIGN_APPROVAL ( #120, ( #238 ) ) ;
#230 = ORIENTED_EDGE ( 'NONE', *, *, #154, .T. ) ;
#231 = CC_DESIGN_PERSON_AND_ORGANIZATION_ASSIGNMENT ( #145, #148, ( #238 ) ) ;
#232 = DIRECTION ( 'NONE',  ( -2.033716942330768141E-30, 1.000000000000000000, -5.724404289786194938E-16 ) ) ;
#233 = DIRECTION ( 'NONE',  ( 0.0000000000000000000, 1.000000000000000000, 0.0000000000000000000 ) ) ;
#234 = DIRECTION ( 'NONE',  ( -3.664998382197393967E-31, -1.000000000000000000, -1.049697256412017316E-16 ) ) ;
#235 = CC_DESIGN_DATE_AND_TIME_ASSIGNMENT ( #1, #204, ( #238 ) ) ;
#236 = DIRECTION ( 'NONE',  ( -3.253947107729239114E-30, 1.000000000000000000, -9.159046863657940300E-16 ) ) ;
#237 = CARTESIAN_POINT ( 'NONE',  ( 2.444036937190193601E-13, -7.347880794884121511E-15, 70.00000000000000000 ) ) ;
#238 = SECURITY_CLASSIFICATION ( '', '', #106 ) ;
#239 = UNCERTAINTY_MEASURE_WITH_UNIT (LENGTH_MEASURE( 1.000000000000000082E-05 ), #144, 'distance_accuracy_value', 'NONE');
#240 = CARTESIAN_POINT ( 'NONE',  ( 3.631176811819155444E-14, 1.893999999999998574, 10.40010373654842013 ) ) ;
#241 = COORDINATED_UNIVERSAL_TIME_OFFSET ( 1, 0, .AHEAD. ) ;
#242 = LOCAL_TIME ( 14, 2, 8.000000000000000000, #85 ) ;
#243 = DIRECTION ( 'NONE',  ( 0.0000000000000000000, 0.0000000000000000000, 1.000000000000000000 ) ) ;
ENDSEC;
END-ISO-10303-21;
