ISO-10303-21;
HEADER;
FILE_DESCRIPTION (( 'STEP AP203' ),
    '1' );
FILE_NAME ('321281.step',
    '2021-11-26T13:02:07',
    ( '' ),
    ( '' ),
    'SwSTEP 2.0',
    'SolidWorks 2019',
    '' );
FILE_SCHEMA (( 'CONFIG_CONTROL_DESIGN' ));
ENDSEC;

DATA;
#1 = PERSON_AND_ORGANIZATION_ROLE ( 'creator' ) ;
#2 = FACE_OUTER_BOUND ( 'NONE', #212, .T. ) ;
#3 = FACE_OUTER_BOUND ( 'NONE', #243, .T. ) ;
#4 = AXIS2_PLACEMENT_3D ( 'NONE', #155, #178, #136 ) ;
#5 = CONICAL_SURFACE ( 'NONE', #144, 1.744662432702592580, 0.5235987755982971503 ) ;
#6 = CARTESIAN_POINT ( 'NONE',  ( 2.444036937190193601E-13, -7.347880794884121511E-15, 70.00000000000000000 ) ) ;
#7 = CC_DESIGN_PERSON_AND_ORGANIZATION_ASSIGNMENT ( #117, #203, ( #165 ) ) ;
#8 = PLANE ( 'NONE',  #240 ) ;
#9 = CARTESIAN_POINT ( 'NONE',  ( 2.444036937190193601E-13, 1.199999999999990186, 70.00000000000000000 ) ) ;
#10 = VERTEX_POINT ( 'NONE', #161 ) ;
#11 = FACE_BOUND ( 'NONE', #174, .T. ) ;
#12 = APPLICATION_PROTOCOL_DEFINITION ( 'international standard', 'config_control_design', 1994, #71 ) ;
#13 = FACE_OUTER_BOUND ( 'NONE', #196, .T. ) ;
#14 = PRODUCT_RELATED_PRODUCT_CATEGORY ( 'detail', '', ( #207 ) ) ;
#15 = COORDINATED_UNIVERSAL_TIME_OFFSET ( 1, 0, .AHEAD. ) ;
#16 = AXIS2_PLACEMENT_3D ( 'NONE', #183, #167, #200 ) ;
#17 = APPROVAL ( #168, 'UNSPECIFIED' ) ;
#18 = MANIFOLD_SOLID_BREP ( 'Corps-Déplacer/Copier1[1]', #182 ) ;
#19 = SHAPE_DEFINITION_REPRESENTATION ( #188, #164 ) ;
#20 = PERSON_AND_ORGANIZATION ( #55, #140 ) ;
#21 = DIRECTION ( 'NONE',  ( 0.0000000000000000000, 1.000000000000000000, 0.0000000000000000000 ) ) ;
#22 = CC_DESIGN_APPROVAL ( #17, ( #165 ) ) ;
#23 = FACE_OUTER_BOUND ( 'NONE', #58, .T. ) ;
#24 = DIRECTION ( 'NONE',  ( -2.039099994057424414E-30, 1.000000000000000000, -5.739556233380123250E-16 ) ) ;
#25 = PLANE ( 'NONE',  #31 ) ;
#26 = AXIS2_PLACEMENT_3D ( 'NONE', #139, #214, #24 ) ;
#27 = CARTESIAN_POINT ( 'NONE',  ( 2.433562493173664138E-13, -7.316389877191761450E-15, 69.70000000000001705 ) ) ;
#28 = DIRECTION ( 'NONE',  ( 1.000000000000000000, 0.0000000000000000000, 0.0000000000000000000 ) ) ;
#29 = AXIS2_PLACEMENT_3D ( 'NONE', #87, #238, #181 ) ;
#30 = DIRECTION ( 'NONE',  ( -3.491481338843133355E-15, -5.786581095169861522E-16, -1.000000000000000000 ) ) ;
#31 = AXIS2_PLACEMENT_3D ( 'NONE', #102, #210, #197 ) ;
#32 = VERTEX_POINT ( 'NONE', #69 ) ;
#33 =( NAMED_UNIT ( * ) PLANE_ANGLE_UNIT ( ) SI_UNIT ( $, .RADIAN. ) );
#34 = EDGE_CURVE ( 'NONE', #217, #217, #241, .T. ) ;
#35 = AXIS2_PLACEMENT_3D ( 'NONE', #143, #198, #28 ) ;
#36 = DATE_TIME_ROLE ( 'creation_date' ) ;
#37 = ADVANCED_FACE ( 'NONE', ( #62 ), #25, .T. ) ;
#38 = CONICAL_SURFACE ( 'NONE', #175, 1.499999999999997558, 0.7853981633974573828 ) ;
#39 = PERSON_AND_ORGANIZATION_ROLE ( 'design_supplier' ) ;
#40 = AXIS2_PLACEMENT_3D ( 'NONE', #177, #82, #157 ) ;
#41 = DATE_AND_TIME ( #56, #127 ) ;
#42 = UNCERTAINTY_MEASURE_WITH_UNIT (LENGTH_MEASURE( 1.000000000000000082E-05 ), #51, 'distance_accuracy_value', 'NONE');
#43 = ORIENTED_EDGE ( 'NONE', *, *, #114, .T. ) ;
#44 = FACE_BOUND ( 'NONE', #135, .T. ) ;
#45 = DIRECTION ( 'NONE',  ( -3.491481338843133355E-15, 1.049697256412017316E-16, -1.000000000000000000 ) ) ;
#46 = ORIENTED_EDGE ( 'NONE', *, *, #34, .F. ) ;
#47 = PLANE ( 'NONE',  #205 ) ;
#48 = VERTEX_POINT ( 'NONE', #235 ) ;
#49 = DIRECTION ( 'NONE',  ( 0.0000000000000000000, 1.000000000000000000, 0.0000000000000000000 ) ) ;
#50 = ADVANCED_FACE ( 'NONE', ( #194, #44 ), #5, .T. ) ;
#51 =( LENGTH_UNIT ( ) NAMED_UNIT ( * ) SI_UNIT ( .MILLI., .METRE. ) );
#52 = APPROVAL_PERSON_ORGANIZATION ( #53, #129, #115 ) ;
#53 = PERSON_AND_ORGANIZATION ( #55, #140 ) ;
#54 = CALENDAR_DATE ( 2021, 26, 11 ) ;
#55 = PERSON ( 'UNSPECIFIED', 'UNSPECIFIED', 'UNSPECIFIED', ('UNSPECIFIED'), ('UNSPECIFIED'), ('UNSPECIFIED') ) ;
#56 = CALENDAR_DATE ( 2021, 26, 11 ) ;
#57 = CC_DESIGN_APPROVAL ( #129, ( #98 ) ) ;
#58 = EDGE_LOOP ( 'NONE', ( #81 ) ) ;
#59 = SECURITY_CLASSIFICATION_LEVEL ( 'unclassified' ) ;
#60 = CIRCLE ( 'NONE', #4, 1.499999999999992673 ) ;
#61 = AXIS2_PLACEMENT_3D ( 'NONE', #156, #219, #49 ) ;
#62 = FACE_OUTER_BOUND ( 'NONE', #153, .T. ) ;
#63 = CYLINDRICAL_SURFACE ( 'NONE', #40, 1.499999999999995337 ) ;
#64 = EDGE_CURVE ( 'NONE', #10, #10, #213, .T. ) ;
#65 = DIRECTION ( 'NONE',  ( 2.020373990948803733E-30, -1.000000000000000000, 5.786581095169862508E-16 ) ) ;
#66 = EDGE_LOOP ( 'NONE', ( #46 ) ) ;
#67 = CARTESIAN_POINT ( 'NONE',  ( 3.335597019379468946E-30, 5.528227356885027475E-31, 9.553529564287131774E-16 ) ) ;
#68 =( GEOMETRIC_REPRESENTATION_CONTEXT ( 3 ) GLOBAL_UNCERTAINTY_ASSIGNED_CONTEXT ( ( #42 ) ) GLOBAL_UNIT_ASSIGNED_CONTEXT ( ( #51, #33, #73 ) ) REPRESENTATION_CONTEXT ( 'NONE', 'WORKASPACE' ) );
#69 = CARTESIAN_POINT ( 'NONE',  ( 3.869445280877825814E-14, 1.499999999999991562, 11.08253175473057794 ) ) ;
#70 = CIRCLE ( 'NONE', #216, 1.888999999999992685 ) ;
#71 = APPLICATION_CONTEXT ( 'configuration controlled 3d designs of mechanical parts and assemblies' ) ;
#72 = DIRECTION ( 'NONE',  ( 0.0000000000000000000, 1.000000000000000000, 0.0000000000000000000 ) ) ;
#73 =( NAMED_UNIT ( * ) SI_UNIT ( $, .STERADIAN. ) SOLID_ANGLE_UNIT ( ) );
#74 = COORDINATED_UNIVERSAL_TIME_OFFSET ( 1, 0, .AHEAD. ) ;
#75 = DATE_AND_TIME ( #113, #110 ) ;
#76 = ADVANCED_FACE ( 'NONE', ( #3, #123 ), #63, .T. ) ;
#77 = COORDINATED_UNIVERSAL_TIME_OFFSET ( 1, 0, .AHEAD. ) ;
#78 = CLOSED_SHELL ( 'NONE', ( #88, #209, #50, #148 ) ) ;
#79 = FACE_OUTER_BOUND ( 'NONE', #154, .T. ) ;
#80 = EDGE_CURVE ( 'NONE', #32, #32, #60, .T. ) ;
#81 = ORIENTED_EDGE ( 'NONE', *, *, #226, .F. ) ;
#82 = DIRECTION ( 'NONE',  ( -3.491481338843133355E-15, 1.049697256412017316E-16, -1.000000000000000000 ) ) ;
#83 = DIRECTION ( 'NONE',  ( -2.020373990948803382E-30, 1.000000000000000000, -5.786581095169861522E-16 ) ) ;
#84 = EDGE_LOOP ( 'NONE', ( #116 ) ) ;
#85 = PERSON_AND_ORGANIZATION_ROLE ( 'design_owner' ) ;
#86 = FACE_BOUND ( 'NONE', #179, .T. ) ;
#87 = CARTESIAN_POINT ( 'NONE',  ( 3.634200523355432317E-14, -1.092605100355860197E-15, 10.40876399058626411 ) ) ;
#88 = ADVANCED_FACE ( 'NONE', ( #23 ), #8, .T. ) ;
#89 = VERTEX_POINT ( 'NONE', #9 ) ;
#90 = COORDINATED_UNIVERSAL_TIME_OFFSET ( 1, 0, .AHEAD. ) ;
#91 = ORIENTED_EDGE ( 'NONE', *, *, #114, .F. ) ;
#92 = CIRCLE ( 'NONE', #61, 1.888999999999999790 ) ;
#93 = APPROVAL_DATE_TIME ( #41, #17 ) ;
#94 = EDGE_LOOP ( 'NONE', ( #192 ) ) ;
#95 = APPLICATION_CONTEXT ( 'configuration controlled 3d designs of mechanical parts and assemblies' ) ;
#96 = ADVANCED_FACE ( 'NONE', ( #79 ), #47, .T. ) ;
#97 = CALENDAR_DATE ( 2021, 26, 11 ) ;
#98 = SECURITY_CLASSIFICATION ( '', '', #59 ) ;
#99 = APPROVAL_PERSON_ORGANIZATION ( #204, #17, #239 ) ;
#100 = DIRECTION ( 'NONE',  ( 3.664998382197393967E-31, 1.000000000000000000, 1.049697256412017316E-16 ) ) ;
#101 = DIRECTION ( 'NONE',  ( 2.020373990948803382E-30, -1.000000000000000000, 5.786581095169861522E-16 ) ) ;
#102 = CARTESIAN_POINT ( 'NONE',  ( 2.444036937190193601E-13, -7.347880794884121511E-15, 70.00000000000000000 ) ) ;
#103 = PLANE ( 'NONE',  #169 ) ;
#104 = ORIENTED_EDGE ( 'NONE', *, *, #186, .T. ) ;
#105 = DIRECTION ( 'NONE',  ( -3.491481338843133355E-15, -5.786581095169861522E-16, -1.000000000000000000 ) ) ;
#106 = MANIFOLD_SOLID_BREP ( 'Corps-Déplacer/Copier1[2]', #78 ) ;
#107 = CARTESIAN_POINT ( 'NONE',  ( 2.433562493173664138E-13, -7.316389877191761450E-15, 69.70000000000001705 ) ) ;
#108 = CC_DESIGN_PERSON_AND_ORGANIZATION_ASSIGNMENT ( #187, #1, ( #191 ) ) ;
#109 = DIRECTION ( 'NONE',  ( -3.491481338843133355E-15, 1.049697256412017316E-16, -1.000000000000000000 ) ) ;
#110 = LOCAL_TIME ( 14, 2, 7.000000000000000000, #90 ) ;
#111 = FACE_OUTER_BOUND ( 'NONE', #122, .T. ) ;
#112 = PERSON_AND_ORGANIZATION ( #55, #140 ) ;
#113 = CALENDAR_DATE ( 2021, 26, 11 ) ;
#114 = EDGE_CURVE ( 'NONE', #89, #89, #228, .T. ) ;
#115 = APPROVAL_ROLE ( '' ) ;
#116 = ORIENTED_EDGE ( 'NONE', *, *, #34, .T. ) ;
#117 = PERSON_AND_ORGANIZATION ( #55, #140 ) ;
#118 = ORIENTED_EDGE ( 'NONE', *, *, #80, .T. ) ;
#119 = ORIENTED_EDGE ( 'NONE', *, *, #186, .F. ) ;
#120 = CARTESIAN_POINT ( 'NONE',  ( -1.857072092328050587E-30, 1.744662432702592580, -5.318865868386318104E-16 ) ) ;
#121 = CC_DESIGN_DATE_AND_TIME_ASSIGNMENT ( #222, #221, ( #98 ) ) ;
#122 = EDGE_LOOP ( 'NONE', ( #119 ) ) ;
#123 = FACE_OUTER_BOUND ( 'NONE', #94, .T. ) ;
#124 = CYLINDRICAL_SURFACE ( 'NONE', #16, 1.888999999999995794 ) ;
#125 = DIRECTION ( 'NONE',  ( -2.020373990948803032E-30, 1.000000000000000000, -5.786581095169862508E-16 ) ) ;
#126 = PERSON_AND_ORGANIZATION_ROLE ( 'classification_officer' ) ;
#127 = LOCAL_TIME ( 14, 2, 7.000000000000000000, #15 ) ;
#128 = DATE_AND_TIME ( #54, #190 ) ;
#129 = APPROVAL ( #172, 'UNSPECIFIED' ) ;
#130 = CONICAL_SURFACE ( 'NONE', #29, 1.888999999999999790, 0.5235987755982933756 ) ;
#131 = PERSON_AND_ORGANIZATION ( #55, #140 ) ;
#132 = ORIENTED_EDGE ( 'NONE', *, *, #193, .T. ) ;
#133 = AXIS2_PLACEMENT_3D ( 'NONE', #6, #231, #134 ) ;
#134 = DIRECTION ( 'NONE',  ( 0.0000000000000000000, 1.000000000000000000, 0.0000000000000000000 ) ) ;
#135 = EDGE_LOOP ( 'NONE', ( #208 ) ) ;
#136 = DIRECTION ( 'NONE',  ( 0.0000000000000000000, 1.000000000000000000, 0.0000000000000000000 ) ) ;
#137 = CC_DESIGN_PERSON_AND_ORGANIZATION_ASSIGNMENT ( #112, #126, ( #98 ) ) ;
#138 = EDGE_LOOP ( 'NONE', ( #147 ) ) ;
#139 = CARTESIAN_POINT ( 'NONE',  ( 8.728703347107869873E-16, 1.446645273792471543E-16, 0.2500000000000010547 ) ) ;
#140 = ORGANIZATION ( 'UNSPECIFIED', 'UNSPECIFIED', '' ) ;
#141 = CARTESIAN_POINT ( 'NONE',  ( 3.335597019379468946E-30, 5.528227356885027475E-31, 9.553529564287131774E-16 ) ) ;
#142 = AXIS2_PLACEMENT_3D ( 'NONE', #141, #105, #125 ) ;
#143 = CARTESIAN_POINT ( 'NONE',  ( 0.0000000000000000000, 0.0000000000000000000, 0.0000000000000000000 ) ) ;
#144 = AXIS2_PLACEMENT_3D ( 'NONE', #67, #229, #65 ) ;
#145 = CARTESIAN_POINT ( 'NONE',  ( 3.634200523355432948E-14, 6.023115693201128852E-15, 10.40876399058626589 ) ) ;
#146 = COORDINATED_UNIVERSAL_TIME_OFFSET ( 1, 0, .AHEAD. ) ;
#147 = ORIENTED_EDGE ( 'NONE', *, *, #64, .F. ) ;
#148 = ADVANCED_FACE ( 'NONE', ( #2 ), #103, .T. ) ;
#149 = APPLICATION_PROTOCOL_DEFINITION ( 'international standard', 'config_control_design', 1994, #95 ) ;
#150 = APPROVAL_PERSON_ORGANIZATION ( #131, #206, #242 ) ;
#151 = APPROVAL_DATE_TIME ( #128, #129 ) ;
#152 = ORIENTED_EDGE ( 'NONE', *, *, #226, .T. ) ;
#153 = EDGE_LOOP ( 'NONE', ( #91 ) ) ;
#154 = EDGE_LOOP ( 'NONE', ( #104 ) ) ;
#155 = CARTESIAN_POINT ( 'NONE',  ( 3.869445280877825814E-14, -1.163330317703974832E-15, 11.08253175473057794 ) ) ;
#156 = CARTESIAN_POINT ( 'NONE',  ( 3.634200523355432317E-14, -1.092605100355860197E-15, 10.40876399058626411 ) ) ;
#157 = DIRECTION ( 'NONE',  ( 3.664998382197393967E-31, 1.000000000000000000, 1.049697256412017316E-16 ) ) ;
#158 = LOCAL_TIME ( 14, 2, 7.000000000000000000, #74 ) ;
#159 = MECHANICAL_CONTEXT ( 'NONE', #71, 'mechanical' ) ;
#160 = LOCAL_TIME ( 14, 2, 7.000000000000000000, #146 ) ;
#161 = CARTESIAN_POINT ( 'NONE',  ( 2.433562493173664138E-13, 1.499999999999990230, 69.70000000000001705 ) ) ;
#162 = VERTEX_POINT ( 'NONE', #237 ) ;
#163 = PERSON_AND_ORGANIZATION ( #55, #140 ) ;
#164 = ADVANCED_BREP_SHAPE_REPRESENTATION ( '321281', ( #18, #106, #35 ), #68 ) ;
#165 = PRODUCT_DEFINITION ( 'UNKNOWN', '', #191, #224 ) ;
#166 = AXIS2_PLACEMENT_3D ( 'NONE', #27, #173, #21 ) ;
#167 = DIRECTION ( 'NONE',  ( -3.491481338843133355E-15, -5.786581095169861522E-16, -1.000000000000000000 ) ) ;
#168 = APPROVAL_STATUS ( 'not_yet_approved' ) ;
#169 = AXIS2_PLACEMENT_3D ( 'NONE', #120, #227, #83 ) ;
#170 = CALENDAR_DATE ( 2021, 26, 11 ) ;
#171 = ORIENTED_EDGE ( 'NONE', *, *, #64, .T. ) ;
#172 = APPROVAL_STATUS ( 'not_yet_approved' ) ;
#173 = DIRECTION ( 'NONE',  ( -3.491481338843133355E-15, 1.049697256412017316E-16, -1.000000000000000000 ) ) ;
#174 = EDGE_LOOP ( 'NONE', ( #118 ) ) ;
#175 = AXIS2_PLACEMENT_3D ( 'NONE', #107, #109, #72 ) ;
#176 = CC_DESIGN_PERSON_AND_ORGANIZATION_ASSIGNMENT ( #20, #39, ( #191 ) ) ;
#177 = CARTESIAN_POINT ( 'NONE',  ( 0.0000000000000000000, 0.0000000000000000000, 0.0000000000000000000 ) ) ;
#178 = DIRECTION ( 'NONE',  ( -3.491481338843133355E-15, 1.049697256412017316E-16, -1.000000000000000000 ) ) ;
#179 = EDGE_LOOP ( 'NONE', ( #43 ) ) ;
#180 = CARTESIAN_POINT ( 'NONE',  ( 8.728703347107831416E-16, 1.888999999999998680, 0.2499999999999999445 ) ) ;
#181 = DIRECTION ( 'NONE',  ( 0.0000000000000000000, 1.000000000000000000, 0.0000000000000000000 ) ) ;
#182 = CLOSED_SHELL ( 'NONE', ( #37, #218, #76, #236, #96 ) ) ;
#183 = CARTESIAN_POINT ( 'NONE',  ( 0.0000000000000000000, 0.0000000000000000000, 0.0000000000000000000 ) ) ;
#184 = CARTESIAN_POINT ( 'NONE',  ( 3.634200523355432317E-14, 1.888999999999998680, 10.40876399058626411 ) ) ;
#185 = APPROVAL_STATUS ( 'not_yet_approved' ) ;
#186 = EDGE_CURVE ( 'NONE', #162, #162, #92, .T. ) ;
#187 = PERSON_AND_ORGANIZATION ( #55, #140 ) ;
#188 = PRODUCT_DEFINITION_SHAPE ( 'NONE', 'NONE',  #165 ) ;
#189 = APPROVAL_DATE_TIME ( #75, #206 ) ;
#190 = LOCAL_TIME ( 14, 2, 7.000000000000000000, #77 ) ;
#191 = PRODUCT_DEFINITION_FORMATION_WITH_SPECIFIED_SOURCE ( 'ANY', '', #207, .NOT_KNOWN. ) ;
#192 = ORIENTED_EDGE ( 'NONE', *, *, #80, .F. ) ;
#193 = EDGE_CURVE ( 'NONE', #48, #48, #199, .T. ) ;
#194 = FACE_OUTER_BOUND ( 'NONE', #84, .T. ) ;
#195 = CC_DESIGN_SECURITY_CLASSIFICATION ( #98, ( #191 ) ) ;
#196 = EDGE_LOOP ( 'NONE', ( #152 ) ) ;
#197 = DIRECTION ( 'NONE',  ( -3.664998382197393967E-31, -1.000000000000000000, -1.049697256412017316E-16 ) ) ;
#198 = DIRECTION ( 'NONE',  ( 0.0000000000000000000, 0.0000000000000000000, 1.000000000000000000 ) ) ;
#199 = CIRCLE ( 'NONE', #142, 1.744662432702592580 ) ;
#200 = DIRECTION ( 'NONE',  ( -2.020373990948803382E-30, 1.000000000000000000, -5.786581095169860536E-16 ) ) ;
#201 = FACE_OUTER_BOUND ( 'NONE', #66, .T. ) ;
#202 = CC_DESIGN_APPROVAL ( #206, ( #191 ) ) ;
#203 = PERSON_AND_ORGANIZATION_ROLE ( 'creator' ) ;
#204 = PERSON_AND_ORGANIZATION ( #55, #140 ) ;
#205 = AXIS2_PLACEMENT_3D ( 'NONE', #211, #45, #100 ) ;
#206 = APPROVAL ( #185, 'UNSPECIFIED' ) ;
#207 = PRODUCT ( '321281', '321281', '', ( #159 ) ) ;
#208 = ORIENTED_EDGE ( 'NONE', *, *, #193, .F. ) ;
#209 = ADVANCED_FACE ( 'NONE', ( #13, #201 ), #124, .T. ) ;
#210 = DIRECTION ( 'NONE',  ( 3.491481338843133355E-15, -1.049697256412017316E-16, 1.000000000000000000 ) ) ;
#211 = CARTESIAN_POINT ( 'NONE',  ( 3.634200523355432948E-14, 1.888999999999998680, 10.40876399058626589 ) ) ;
#212 = EDGE_LOOP ( 'NONE', ( #132 ) ) ;
#213 = CIRCLE ( 'NONE', #166, 1.499999999999997558 ) ;
#214 = DIRECTION ( 'NONE',  ( -3.491481338843133355E-15, -5.786581095169861522E-16, -1.000000000000000000 ) ) ;
#215 = DIRECTION ( 'NONE',  ( -3.262559990491889012E-30, 1.000000000000000000, -9.183289973408225205E-16 ) ) ;
#216 = AXIS2_PLACEMENT_3D ( 'NONE', #145, #30, #215 ) ;
#217 = VERTEX_POINT ( 'NONE', #180 ) ;
#218 = ADVANCED_FACE ( 'NONE', ( #86, #234 ), #38, .T. ) ;
#219 = DIRECTION ( 'NONE',  ( -3.491481338843133355E-15, 1.049697256412017316E-16, -1.000000000000000000 ) ) ;
#220 = VERTEX_POINT ( 'NONE', #184 ) ;
#221 = DATE_TIME_ROLE ( 'classification_date' ) ;
#222 = DATE_AND_TIME ( #170, #158 ) ;
#223 = CC_DESIGN_PERSON_AND_ORGANIZATION_ASSIGNMENT ( #163, #85, ( #207 ) ) ;
#224 = DESIGN_CONTEXT ( 'detailed design', #95, 'design' ) ;
#225 = DATE_AND_TIME ( #97, #160 ) ;
#226 = EDGE_CURVE ( 'NONE', #220, #220, #70, .T. ) ;
#227 = DIRECTION ( 'NONE',  ( -3.491481338843133355E-15, -5.786581095169861522E-16, -1.000000000000000000 ) ) ;
#228 = CIRCLE ( 'NONE', #133, 1.199999999999997513 ) ;
#229 = DIRECTION ( 'NONE',  ( 3.491481338843133355E-15, 5.786581095169861522E-16, 1.000000000000000000 ) ) ;
#230 = DIRECTION ( 'NONE',  ( 3.491481338843133355E-15, 5.786581095169861522E-16, 1.000000000000000000 ) ) ;
#231 = DIRECTION ( 'NONE',  ( -3.491481338843133355E-15, 1.049697256412017316E-16, -1.000000000000000000 ) ) ;
#232 = CC_DESIGN_DATE_AND_TIME_ASSIGNMENT ( #225, #36, ( #165 ) ) ;
#233 = CARTESIAN_POINT ( 'NONE',  ( 3.634200523355432948E-14, 6.023115693201128852E-15, 10.40876399058626589 ) ) ;
#234 = FACE_OUTER_BOUND ( 'NONE', #138, .T. ) ;
#235 = CARTESIAN_POINT ( 'NONE',  ( -1.892735826383161356E-31, 1.744662432702592580, -5.421010862427522170E-17 ) ) ;
#236 = ADVANCED_FACE ( 'NONE', ( #11, #111 ), #130, .T. ) ;
#237 = CARTESIAN_POINT ( 'NONE',  ( 3.634200523355432317E-14, 1.888999999999998680, 10.40876399058626411 ) ) ;
#238 = DIRECTION ( 'NONE',  ( -3.491481338843133355E-15, 1.049697256412017316E-16, -1.000000000000000000 ) ) ;
#239 = APPROVAL_ROLE ( '' ) ;
#240 = AXIS2_PLACEMENT_3D ( 'NONE', #233, #230, #101 ) ;
#241 = CIRCLE ( 'NONE', #26, 1.888999999999998458 ) ;
#242 = APPROVAL_ROLE ( '' ) ;
#243 = EDGE_LOOP ( 'NONE', ( #171 ) ) ;
ENDSEC;
END-ISO-10303-21;
