ISO-10303-21;
HEADER;
FILE_DESCRIPTION (( 'STEP AP203' ),
    '1' );
FILE_NAME ('321280.step',
    '2021-11-26T13:02:06',
    ( '' ),
    ( '' ),
    'SwSTEP 2.0',
    'SolidWorks 2019',
    '' );
FILE_SCHEMA (( 'CONFIG_CONTROL_DESIGN' ));
ENDSEC;

DATA;
#1 = CC_DESIGN_APPROVAL ( #12, ( #65 ) ) ;
#2 = COORDINATED_UNIVERSAL_TIME_OFFSET ( 1, 0, .AHEAD. ) ;
#3 = CALENDAR_DATE ( 2021, 26, 11 ) ;
#4 = CC_DESIGN_PERSON_AND_ORGANIZATION_ASSIGNMENT ( #63, #21, ( #78 ) ) ;
#5 = DATE_AND_TIME ( #136, #117 ) ;
#6 = LOCAL_TIME ( 14, 2, 6.000000000000000000, #86 ) ;
#7 = ORIENTED_EDGE ( 'NONE', *, *, #121, .T. ) ;
#8 = DIRECTION ( 'NONE',  ( -3.491481338843133355E-15, 1.049697256412017316E-16, -1.000000000000000000 ) ) ;
#9 = ORIENTED_EDGE ( 'NONE', *, *, #205, .T. ) ;
#10 = DIRECTION ( 'NONE',  ( -2.044511618245475027E-30, 1.000000000000000000, -5.754788601303106938E-16 ) ) ;
#11 = EDGE_LOOP ( 'NONE', ( #27 ) ) ;
#12 = APPROVAL ( #155, 'UNSPECIFIED' ) ;
#13 = MECHANICAL_CONTEXT ( 'NONE', #94, 'mechanical' ) ;
#14 =( GEOMETRIC_REPRESENTATION_CONTEXT ( 3 ) GLOBAL_UNCERTAINTY_ASSIGNED_CONTEXT ( ( #239 ) ) GLOBAL_UNIT_ASSIGNED_CONTEXT ( ( #111, #166, #243 ) ) REPRESENTATION_CONTEXT ( 'NONE', 'WORKASPACE' ) );
#15 = PERSON_AND_ORGANIZATION_ROLE ( 'design_owner' ) ;
#16 = CARTESIAN_POINT ( 'NONE',  ( 3.637224234891710452E-14, 1.883999999999998565, 10.41742424462410810 ) ) ;
#17 = CARTESIAN_POINT ( 'NONE',  ( 3.869445280877825814E-14, -1.163330317703974832E-15, 11.08253175473057794 ) ) ;
#18 = CARTESIAN_POINT ( 'NONE',  ( 2.444036937190193601E-13, -7.347880794884121511E-15, 70.00000000000000000 ) ) ;
#19 = PERSON_AND_ORGANIZATION ( #113, #195 ) ;
#20 = APPROVAL ( #67, 'UNSPECIFIED' ) ;
#21 = PERSON_AND_ORGANIZATION_ROLE ( 'creator' ) ;
#22 = APPROVAL_DATE_TIME ( #193, #170 ) ;
#23 = DATE_TIME_ROLE ( 'classification_date' ) ;
#24 = ORIENTED_EDGE ( 'NONE', *, *, #121, .F. ) ;
#25 = SHAPE_DEFINITION_REPRESENTATION ( #197, #209 ) ;
#26 = CIRCLE ( 'NONE', #145, 1.499999999999997558 ) ;
#27 = ORIENTED_EDGE ( 'NONE', *, *, #53, .F. ) ;
#28 = DIRECTION ( 'NONE',  ( -3.491481338843133355E-15, 1.049697256412017316E-16, -1.000000000000000000 ) ) ;
#29 = DIRECTION ( 'NONE',  ( -3.664998382197393967E-31, -1.000000000000000000, -1.049697256412017316E-16 ) ) ;
#30 = DIRECTION ( 'NONE',  ( -2.017983485509342564E-30, 1.000000000000000000, -5.779734415473006461E-16 ) ) ;
#31 = FACE_OUTER_BOUND ( 'NONE', #88, .T. ) ;
#32 = EDGE_LOOP ( 'NONE', ( #216 ) ) ;
#33 = CARTESIAN_POINT ( 'NONE',  ( 0.0000000000000000000, 0.0000000000000000000, 0.0000000000000000000 ) ) ;
#34 = CLOSED_SHELL ( 'NONE', ( #110, #60, #36, #228, #68 ) ) ;
#35 = AXIS2_PLACEMENT_3D ( 'NONE', #165, #91, #212 ) ;
#36 = ADVANCED_FACE ( 'NONE', ( #31, #92 ), #109, .T. ) ;
#37 = DIRECTION ( 'NONE',  ( 0.0000000000000000000, 1.000000000000000000, 0.0000000000000000000 ) ) ;
#38 = DIRECTION ( 'NONE',  ( -3.491481338843133355E-15, -5.779734415473006461E-16, -1.000000000000000000 ) ) ;
#39 = DIRECTION ( 'NONE',  ( 2.017983485509342564E-30, -1.000000000000000000, 5.779734415473006461E-16 ) ) ;
#40 = APPROVAL_PERSON_ORGANIZATION ( #156, #170, #120 ) ;
#41 = CARTESIAN_POINT ( 'NONE',  ( 8.728703347107831416E-16, 1.883999999999998565, 0.2499999999999999445 ) ) ;
#42 = ADVANCED_FACE ( 'NONE', ( #180, #108 ), #181, .T. ) ;
#43 = APPROVAL_DATE_TIME ( #190, #20 ) ;
#44 = ADVANCED_FACE ( 'NONE', ( #69 ), #179, .T. ) ;
#45 = DATE_AND_TIME ( #171, #140 ) ;
#46 = SECURITY_CLASSIFICATION_LEVEL ( 'unclassified' ) ;
#47 = EDGE_LOOP ( 'NONE', ( #24 ) ) ;
#48 = CONICAL_SURFACE ( 'NONE', #225, 1.499999999999997558, 0.7853981633974573828 ) ;
#49 = CARTESIAN_POINT ( 'NONE',  ( 3.637224234891710452E-14, -1.093514164846195921E-15, 10.41742424462410810 ) ) ;
#50 = EDGE_CURVE ( 'NONE', #114, #114, #102, .T. ) ;
#51 = DIRECTION ( 'NONE',  ( -3.491481338843133355E-15, -5.779734415473006461E-16, -1.000000000000000000 ) ) ;
#52 = EDGE_LOOP ( 'NONE', ( #157 ) ) ;
#53 = EDGE_CURVE ( 'NONE', #131, #131, #90, .T. ) ;
#54 = ORIENTED_EDGE ( 'NONE', *, *, #50, .F. ) ;
#55 = AXIS2_PLACEMENT_3D ( 'NONE', #17, #81, #208 ) ;
#56 = MANIFOLD_SOLID_BREP ( 'Corps-Déplacer/Copier1[1]', #34 ) ;
#57 = DIRECTION ( 'NONE',  ( 3.491481338843133355E-15, -1.049697256412017316E-16, 1.000000000000000000 ) ) ;
#58 = CARTESIAN_POINT ( 'NONE',  ( 3.869445280877825814E-14, 1.499999999999991562, 11.08253175473057794 ) ) ;
#59 = FACE_BOUND ( 'NONE', #199, .T. ) ;
#60 = ADVANCED_FACE ( 'NONE', ( #146, #234 ), #48, .T. ) ;
#61 = DIRECTION ( 'NONE',  ( 3.491481338843133355E-15, 5.779734415473006461E-16, 1.000000000000000000 ) ) ;
#62 = AXIS2_PLACEMENT_3D ( 'NONE', #33, #185, #116 ) ;
#63 = PERSON_AND_ORGANIZATION ( #113, #195 ) ;
#64 = ORIENTED_EDGE ( 'NONE', *, *, #205, .F. ) ;
#65 = PRODUCT_DEFINITION ( 'UNKNOWN', '', #78, #169 ) ;
#66 = PERSON_AND_ORGANIZATION_ROLE ( 'creator' ) ;
#67 = APPROVAL_STATUS ( 'not_yet_approved' ) ;
#68 = ADVANCED_FACE ( 'NONE', ( #73 ), #105, .T. ) ;
#69 = FACE_OUTER_BOUND ( 'NONE', #215, .T. ) ;
#70 = AXIS2_PLACEMENT_3D ( 'NONE', #128, #127, #126 ) ;
#71 = CARTESIAN_POINT ( 'NONE',  ( 2.433562493173664138E-13, -7.316389877191761450E-15, 69.70000000000001705 ) ) ;
#72 = EDGE_LOOP ( 'NONE', ( #7 ) ) ;
#73 = FACE_OUTER_BOUND ( 'NONE', #52, .T. ) ;
#74 = AXIS2_PLACEMENT_3D ( 'NONE', #187, #95, #75 ) ;
#75 = DIRECTION ( 'NONE',  ( 2.017983485509342564E-30, -1.000000000000000000, 5.779734415473006461E-16 ) ) ;
#76 = CARTESIAN_POINT ( 'NONE',  ( 2.444036937190193601E-13, 1.199999999999990186, 70.00000000000000000 ) ) ;
#77 = DIRECTION ( 'NONE',  ( 0.0000000000000000000, 1.000000000000000000, 0.0000000000000000000 ) ) ;
#78 = PRODUCT_DEFINITION_FORMATION_WITH_SPECIFIED_SOURCE ( 'ANY', '', #231, .NOT_KNOWN. ) ;
#79 = FACE_BOUND ( 'NONE', #230, .T. ) ;
#80 = EDGE_CURVE ( 'NONE', #184, #184, #150, .T. ) ;
#81 = DIRECTION ( 'NONE',  ( -3.491481338843133355E-15, 1.049697256412017316E-16, -1.000000000000000000 ) ) ;
#82 = CONICAL_SURFACE ( 'NONE', #74, 1.739662432702592465, 0.5235987755982971503 ) ;
#83 = COORDINATED_UNIVERSAL_TIME_OFFSET ( 1, 0, .AHEAD. ) ;
#84 = ORIENTED_EDGE ( 'NONE', *, *, #53, .T. ) ;
#85 = CIRCLE ( 'NONE', #218, 1.739662432702592465 ) ;
#86 = COORDINATED_UNIVERSAL_TIME_OFFSET ( 1, 0, .AHEAD. ) ;
#87 = PRODUCT_RELATED_PRODUCT_CATEGORY ( 'detail', '', ( #231 ) ) ;
#88 = EDGE_LOOP ( 'NONE', ( #138 ) ) ;
#89 = DIRECTION ( 'NONE',  ( 3.664998382197393967E-31, 1.000000000000000000, 1.049697256412017316E-16 ) ) ;
#90 = CIRCLE ( 'NONE', #237, 1.883999999999998343 ) ;
#91 = DIRECTION ( 'NONE',  ( -3.491481338843133355E-15, -5.779734415473006461E-16, -1.000000000000000000 ) ) ;
#92 = FACE_OUTER_BOUND ( 'NONE', #122, .T. ) ;
#93 = CARTESIAN_POINT ( 'NONE',  ( 0.0000000000000000000, 0.0000000000000000000, 0.0000000000000000000 ) ) ;
#94 = APPLICATION_CONTEXT ( 'configuration controlled 3d designs of mechanical parts and assemblies' ) ;
#95 = DIRECTION ( 'NONE',  ( 3.491481338843133355E-15, 5.779734415473006461E-16, 1.000000000000000000 ) ) ;
#96 = CC_DESIGN_APPROVAL ( #170, ( #119 ) ) ;
#97 = VERTEX_POINT ( 'NONE', #76 ) ;
#98 = EDGE_CURVE ( 'NONE', #206, #206, #26, .T. ) ;
#99 = CARTESIAN_POINT ( 'NONE',  ( 3.637224234891710452E-14, 1.883999999999998565, 10.41742424462410810 ) ) ;
#100 = APPROVAL_STATUS ( 'not_yet_approved' ) ;
#101 = APPROVAL_DATE_TIME ( #5, #12 ) ;
#102 = CIRCLE ( 'NONE', #182, 1.883999999999999675 ) ;
#103 = CC_DESIGN_PERSON_AND_ORGANIZATION_ASSIGNMENT ( #183, #15, ( #231 ) ) ;
#104 = APPLICATION_CONTEXT ( 'configuration controlled 3d designs of mechanical parts and assemblies' ) ;
#105 = PLANE ( 'NONE',  #242 ) ;
#106 = CARTESIAN_POINT ( 'NONE',  ( 2.444036937190193601E-13, -7.347880794884121511E-15, 70.00000000000000000 ) ) ;
#107 = DIRECTION ( 'NONE',  ( 0.0000000000000000000, 1.000000000000000000, 0.0000000000000000000 ) ) ;
#108 = FACE_OUTER_BOUND ( 'NONE', #11, .T. ) ;
#109 = CYLINDRICAL_SURFACE ( 'NONE', #70, 1.499999999999995337 ) ;
#110 = ADVANCED_FACE ( 'NONE', ( #198 ), #200, .T. ) ;
#111 =( LENGTH_UNIT ( ) NAMED_UNIT ( * ) SI_UNIT ( .MILLI., .METRE. ) );
#112 = APPROVAL_PERSON_ORGANIZATION ( #173, #12, #227 ) ;
#113 = PERSON ( 'UNSPECIFIED', 'UNSPECIFIED', 'UNSPECIFIED', ('UNSPECIFIED'), ('UNSPECIFIED'), ('UNSPECIFIED') ) ;
#114 = VERTEX_POINT ( 'NONE', #99 ) ;
#115 = ADVANCED_FACE ( 'NONE', ( #177, #79 ), #82, .T. ) ;
#116 = DIRECTION ( 'NONE',  ( 1.000000000000000000, 0.0000000000000000000, 0.0000000000000000000 ) ) ;
#117 = LOCAL_TIME ( 14, 2, 6.000000000000000000, #2 ) ;
#118 = PERSON_AND_ORGANIZATION_ROLE ( 'design_supplier' ) ;
#119 = SECURITY_CLASSIFICATION ( '', '', #46 ) ;
#120 = APPROVAL_ROLE ( '' ) ;
#121 = EDGE_CURVE ( 'NONE', #97, #97, #172, .T. ) ;
#122 = EDGE_LOOP ( 'NONE', ( #194 ) ) ;
#123 = AXIS2_PLACEMENT_3D ( 'NONE', #147, #202, #37 ) ;
#124 = DIRECTION ( 'NONE',  ( -3.491481338843133355E-15, 1.049697256412017316E-16, -1.000000000000000000 ) ) ;
#125 = DIRECTION ( 'NONE',  ( -3.491481338843133355E-15, -5.779734415473006461E-16, -1.000000000000000000 ) ) ;
#126 = DIRECTION ( 'NONE',  ( 3.664998382197393967E-31, 1.000000000000000000, 1.049697256412017316E-16 ) ) ;
#127 = DIRECTION ( 'NONE',  ( -3.491481338843133355E-15, 1.049697256412017316E-16, -1.000000000000000000 ) ) ;
#128 = CARTESIAN_POINT ( 'NONE',  ( 0.0000000000000000000, 0.0000000000000000000, 0.0000000000000000000 ) ) ;
#129 = PLANE ( 'NONE',  #159 ) ;
#130 = LOCAL_TIME ( 14, 2, 6.000000000000000000, #158 ) ;
#131 = VERTEX_POINT ( 'NONE', #41 ) ;
#132 = VERTEX_POINT ( 'NONE', #152 ) ;
#133 = CALENDAR_DATE ( 2021, 26, 11 ) ;
#134 = CC_DESIGN_APPROVAL ( #20, ( #78 ) ) ;
#135 = EDGE_CURVE ( 'NONE', #224, #224, #222, .T. ) ;
#136 = CALENDAR_DATE ( 2021, 26, 11 ) ;
#137 = PERSON_AND_ORGANIZATION ( #113, #195 ) ;
#138 = ORIENTED_EDGE ( 'NONE', *, *, #98, .T. ) ;
#139 = EDGE_LOOP ( 'NONE', ( #84 ) ) ;
#140 = LOCAL_TIME ( 14, 2, 6.000000000000000000, #83 ) ;
#141 = DIRECTION ( 'NONE',  ( -3.491481338843133355E-15, 1.049697256412017316E-16, -1.000000000000000000 ) ) ;
#142 = ORIENTED_EDGE ( 'NONE', *, *, #98, .F. ) ;
#143 = DIRECTION ( 'NONE',  ( 0.0000000000000000000, 1.000000000000000000, 0.0000000000000000000 ) ) ;
#144 = ADVANCED_FACE ( 'NONE', ( #151 ), #129, .T. ) ;
#145 = AXIS2_PLACEMENT_3D ( 'NONE', #71, #141, #219 ) ;
#146 = FACE_BOUND ( 'NONE', #72, .T. ) ;
#147 = CARTESIAN_POINT ( 'NONE',  ( 3.637224234891710452E-14, -1.093514164846195921E-15, 10.41742424462410810 ) ) ;
#148 = CC_DESIGN_DATE_AND_TIME_ASSIGNMENT ( #45, #23, ( #119 ) ) ;
#149 = FACE_OUTER_BOUND ( 'NONE', #153, .T. ) ;
#150 = CIRCLE ( 'NONE', #233, 1.883999999999992347 ) ;
#151 = FACE_OUTER_BOUND ( 'NONE', #32, .T. ) ;
#152 = CARTESIAN_POINT ( 'NONE',  ( -1.892735826383161356E-31, 1.739662432702592465, -5.421010862427522170E-17 ) ) ;
#153 = EDGE_LOOP ( 'NONE', ( #54 ) ) ;
#154 = APPROVAL_PERSON_ORGANIZATION ( #19, #20, #229 ) ;
#155 = APPROVAL_STATUS ( 'not_yet_approved' ) ;
#156 = PERSON_AND_ORGANIZATION ( #113, #195 ) ;
#157 = ORIENTED_EDGE ( 'NONE', *, *, #50, .T. ) ;
#158 = COORDINATED_UNIVERSAL_TIME_OFFSET ( 1, 0, .AHEAD. ) ;
#159 = AXIS2_PLACEMENT_3D ( 'NONE', #221, #61, #39 ) ;
#160 = DATE_AND_TIME ( #226, #6 ) ;
#161 = ORIENTED_EDGE ( 'NONE', *, *, #80, .T. ) ;
#162 = EDGE_LOOP ( 'NONE', ( #142 ) ) ;
#163 = CARTESIAN_POINT ( 'NONE',  ( 3.637224234891711083E-14, 6.020994542723685864E-15, 10.41742424462410987 ) ) ;
#164 = CC_DESIGN_PERSON_AND_ORGANIZATION_ASSIGNMENT ( #211, #188, ( #119 ) ) ;
#165 = CARTESIAN_POINT ( 'NONE',  ( -1.849941821096577953E-30, 1.739662432702592465, -5.298443959919709387E-16 ) ) ;
#166 =( NAMED_UNIT ( * ) PLANE_ANGLE_UNIT ( ) SI_UNIT ( $, .RADIAN. ) );
#167 = APPLICATION_PROTOCOL_DEFINITION ( 'international standard', 'config_control_design', 1994, #104 ) ;
#168 = APPLICATION_PROTOCOL_DEFINITION ( 'international standard', 'config_control_design', 1994, #94 ) ;
#169 = DESIGN_CONTEXT ( 'detailed design', #104, 'design' ) ;
#170 = APPROVAL ( #100, 'UNSPECIFIED' ) ;
#171 = CALENDAR_DATE ( 2021, 26, 11 ) ;
#172 = CIRCLE ( 'NONE', #186, 1.199999999999997513 ) ;
#173 = PERSON_AND_ORGANIZATION ( #113, #195 ) ;
#174 = COORDINATED_UNIVERSAL_TIME_OFFSET ( 1, 0, .AHEAD. ) ;
#175 = AXIS2_PLACEMENT_3D ( 'NONE', #93, #51, #30 ) ;
#176 = CARTESIAN_POINT ( 'NONE',  ( 3.637224234891709821E-14, 1.883999999999998565, 10.41742424462410810 ) ) ;
#177 = FACE_OUTER_BOUND ( 'NONE', #139, .T. ) ;
#178 = LOCAL_TIME ( 14, 2, 6.000000000000000000, #174 ) ;
#179 = PLANE ( 'NONE',  #35 ) ;
#180 = FACE_OUTER_BOUND ( 'NONE', #196, .T. ) ;
#181 = CYLINDRICAL_SURFACE ( 'NONE', #175, 1.883999999999995456 ) ;
#182 = AXIS2_PLACEMENT_3D ( 'NONE', #49, #124, #107 ) ;
#183 = PERSON_AND_ORGANIZATION ( #113, #195 ) ;
#184 = VERTEX_POINT ( 'NONE', #16 ) ;
#185 = DIRECTION ( 'NONE',  ( 0.0000000000000000000, 0.0000000000000000000, 1.000000000000000000 ) ) ;
#186 = AXIS2_PLACEMENT_3D ( 'NONE', #18, #241, #77 ) ;
#187 = CARTESIAN_POINT ( 'NONE',  ( 3.321336476916523678E-30, 5.498079719756097910E-31, 9.512685747353914340E-16 ) ) ;
#188 = PERSON_AND_ORGANIZATION_ROLE ( 'classification_officer' ) ;
#189 = CC_DESIGN_PERSON_AND_ORGANIZATION_ASSIGNMENT ( #137, #66, ( #65 ) ) ;
#190 = DATE_AND_TIME ( #3, #130 ) ;
#191 = CONICAL_SURFACE ( 'NONE', #123, 1.883999999999999675, 0.5235987755982935976 ) ;
#192 = DATE_TIME_ROLE ( 'creation_date' ) ;
#193 = DATE_AND_TIME ( #133, #178 ) ;
#194 = ORIENTED_EDGE ( 'NONE', *, *, #135, .F. ) ;
#195 = ORGANIZATION ( 'UNSPECIFIED', 'UNSPECIFIED', '' ) ;
#196 = EDGE_LOOP ( 'NONE', ( #161 ) ) ;
#197 = PRODUCT_DEFINITION_SHAPE ( 'NONE', 'NONE',  #65 ) ;
#198 = FACE_OUTER_BOUND ( 'NONE', #47, .T. ) ;
#199 = EDGE_LOOP ( 'NONE', ( #201 ) ) ;
#200 = PLANE ( 'NONE',  #207 ) ;
#201 = ORIENTED_EDGE ( 'NONE', *, *, #135, .T. ) ;
#202 = DIRECTION ( 'NONE',  ( -3.491481338843133355E-15, 1.049697256412017316E-16, -1.000000000000000000 ) ) ;
#203 = CC_DESIGN_SECURITY_CLASSIFICATION ( #119, ( #78 ) ) ;
#204 = CARTESIAN_POINT ( 'NONE',  ( 3.321336476916523678E-30, 5.498079719756097910E-31, 9.512685747353914340E-16 ) ) ;
#205 = EDGE_CURVE ( 'NONE', #132, #132, #85, .T. ) ;
#206 = VERTEX_POINT ( 'NONE', #240 ) ;
#207 = AXIS2_PLACEMENT_3D ( 'NONE', #106, #57, #29 ) ;
#208 = DIRECTION ( 'NONE',  ( 0.0000000000000000000, 1.000000000000000000, 0.0000000000000000000 ) ) ;
#209 = ADVANCED_BREP_SHAPE_REPRESENTATION ( '321280', ( #56, #214, #62 ), #14 ) ;
#210 = PERSON_AND_ORGANIZATION ( #113, #195 ) ;
#211 = PERSON_AND_ORGANIZATION ( #113, #195 ) ;
#212 = DIRECTION ( 'NONE',  ( -2.017983485509342564E-30, 1.000000000000000000, -5.779734415473006461E-16 ) ) ;
#213 = CLOSED_SHELL ( 'NONE', ( #144, #42, #115, #44 ) ) ;
#214 = MANIFOLD_SOLID_BREP ( 'Corps-Déplacer/Copier1[2]', #213 ) ;
#215 = EDGE_LOOP ( 'NONE', ( #9 ) ) ;
#216 = ORIENTED_EDGE ( 'NONE', *, *, #80, .F. ) ;
#217 = DIRECTION ( 'NONE',  ( -3.491481338843133355E-15, -5.779734415473006461E-16, -1.000000000000000000 ) ) ;
#218 = AXIS2_PLACEMENT_3D ( 'NONE', #204, #38, #223 ) ;
#219 = DIRECTION ( 'NONE',  ( 0.0000000000000000000, 1.000000000000000000, 0.0000000000000000000 ) ) ;
#220 = CC_DESIGN_PERSON_AND_ORGANIZATION_ASSIGNMENT ( #210, #118, ( #78 ) ) ;
#221 = CARTESIAN_POINT ( 'NONE',  ( 3.637224234891709821E-14, 6.020994542723682708E-15, 10.41742424462410810 ) ) ;
#222 = CIRCLE ( 'NONE', #55, 1.499999999999992673 ) ;
#223 = DIRECTION ( 'NONE',  ( -2.017983485509342914E-30, 1.000000000000000000, -5.779734415473006461E-16 ) ) ;
#224 = VERTEX_POINT ( 'NONE', #58 ) ;
#225 = AXIS2_PLACEMENT_3D ( 'NONE', #235, #28, #143 ) ;
#226 = CALENDAR_DATE ( 2021, 26, 11 ) ;
#227 = APPROVAL_ROLE ( '' ) ;
#228 = ADVANCED_FACE ( 'NONE', ( #59, #149 ), #191, .T. ) ;
#229 = APPROVAL_ROLE ( '' ) ;
#230 = EDGE_LOOP ( 'NONE', ( #64 ) ) ;
#231 = PRODUCT ( '321280', '321280', '', ( #13 ) ) ;
#232 = DIRECTION ( 'NONE',  ( -3.271218589192770552E-30, 1.000000000000000000, -9.207661762085000683E-16 ) ) ;
#233 = AXIS2_PLACEMENT_3D ( 'NONE', #163, #217, #232 ) ;
#234 = FACE_OUTER_BOUND ( 'NONE', #162, .T. ) ;
#235 = CARTESIAN_POINT ( 'NONE',  ( 2.433562493173664138E-13, -7.316389877191761450E-15, 69.70000000000001705 ) ) ;
#236 = CARTESIAN_POINT ( 'NONE',  ( 8.728703347107869873E-16, 1.444933603868257532E-16, 0.2500000000000010547 ) ) ;
#237 = AXIS2_PLACEMENT_3D ( 'NONE', #236, #125, #10 ) ;
#238 = CC_DESIGN_DATE_AND_TIME_ASSIGNMENT ( #160, #192, ( #65 ) ) ;
#239 = UNCERTAINTY_MEASURE_WITH_UNIT (LENGTH_MEASURE( 1.000000000000000082E-05 ), #111, 'distance_accuracy_value', 'NONE');
#240 = CARTESIAN_POINT ( 'NONE',  ( 2.433562493173664138E-13, 1.499999999999990230, 69.70000000000001705 ) ) ;
#241 = DIRECTION ( 'NONE',  ( -3.491481338843133355E-15, 1.049697256412017316E-16, -1.000000000000000000 ) ) ;
#242 = AXIS2_PLACEMENT_3D ( 'NONE', #176, #8, #89 ) ;
#243 =( NAMED_UNIT ( * ) SI_UNIT ( $, .STERADIAN. ) SOLID_ANGLE_UNIT ( ) );
ENDSEC;
END-ISO-10303-21;
