ISO-10303-21;
HEADER;
FILE_DESCRIPTION (( 'STEP AP203' ),
    '1' );
FILE_NAME ('321279.step',
    '2021-11-26T13:02:06',
    ( '' ),
    ( '' ),
    'SwSTEP 2.0',
    'SolidWorks 2019',
    '' );
FILE_SCHEMA (( 'CONFIG_CONTROL_DESIGN' ));
ENDSEC;

DATA;
#1 = ORIENTED_EDGE ( 'NONE', *, *, #33, .F. ) ;
#2 = DIRECTION ( 'NONE',  ( -3.491481338843133355E-15, -5.772899109937842645E-16, -1.000000000000000000 ) ) ;
#3 = CLOSED_SHELL ( 'NONE', ( #115, #222, #30, #66 ) ) ;
#4 = CC_DESIGN_PERSON_AND_ORGANIZATION_ASSIGNMENT ( #144, #65, ( #193 ) ) ;
#5 = CARTESIAN_POINT ( 'NONE',  ( 0.0000000000000000000, 0.0000000000000000000, 0.0000000000000000000 ) ) ;
#6 = ADVANCED_BREP_SHAPE_REPRESENTATION ( '321279', ( #133, #126, #159 ), #136 ) ;
#7 = DIRECTION ( 'NONE',  ( 3.491481338843133355E-15, -1.049697256412017316E-16, 1.000000000000000000 ) ) ;
#8 = CARTESIAN_POINT ( 'NONE',  ( 2.444036937190193601E-13, 1.199999999999990186, 70.00000000000000000 ) ) ;
#9 = COORDINATED_UNIVERSAL_TIME_OFFSET ( 1, 0, .AHEAD. ) ;
#10 = CC_DESIGN_PERSON_AND_ORGANIZATION_ASSIGNMENT ( #83, #98, ( #194 ) ) ;
#11 = LOCAL_TIME ( 14, 2, 6.000000000000000000, #25 ) ;
#12 = PERSON_AND_ORGANIZATION_ROLE ( 'creator' ) ;
#13 = ADVANCED_FACE ( 'NONE', ( #242, #184 ), #206, .T. ) ;
#14 = EDGE_LOOP ( 'NONE', ( #32 ) ) ;
#15 = EDGE_LOOP ( 'NONE', ( #70 ) ) ;
#16 = ORIENTED_EDGE ( 'NONE', *, *, #71, .T. ) ;
#17 = EDGE_LOOP ( 'NONE', ( #241 ) ) ;
#18 = UNCERTAINTY_MEASURE_WITH_UNIT (LENGTH_MEASURE( 1.000000000000000082E-05 ), #38, 'distance_accuracy_value', 'NONE');
#19 = EDGE_LOOP ( 'NONE', ( #34 ) ) ;
#20 = CIRCLE ( 'NONE', #211, 1.734662432702592572 ) ;
#21 = DIRECTION ( 'NONE',  ( -3.491481338843133355E-15, 1.049697256412017316E-16, -1.000000000000000000 ) ) ;
#22 = FACE_OUTER_BOUND ( 'NONE', #35, .T. ) ;
#23 = CC_DESIGN_APPROVAL ( #175, ( #239 ) ) ;
#24 = CARTESIAN_POINT ( 'NONE',  ( 2.433562493173664138E-13, -7.316389877191761450E-15, 69.70000000000001705 ) ) ;
#25 = COORDINATED_UNIVERSAL_TIME_OFFSET ( 1, 0, .AHEAD. ) ;
#26 = AXIS2_PLACEMENT_3D ( 'NONE', #24, #21, #174 ) ;
#27 = DIRECTION ( 'NONE',  ( 1.000000000000000000, 0.0000000000000000000, 0.0000000000000000000 ) ) ;
#28 = PRODUCT_DEFINITION_SHAPE ( 'NONE', 'NONE',  #193 ) ;
#29 = MECHANICAL_CONTEXT ( 'NONE', #79, 'mechanical' ) ;
#30 = ADVANCED_FACE ( 'NONE', ( #67, #207 ), #197, .T. ) ;
#31 = FACE_OUTER_BOUND ( 'NONE', #19, .T. ) ;
#32 = ORIENTED_EDGE ( 'NONE', *, *, #171, .F. ) ;
#33 = EDGE_CURVE ( 'NONE', #137, #137, #231, .T. ) ;
#34 = ORIENTED_EDGE ( 'NONE', *, *, #163, .F. ) ;
#35 = EDGE_LOOP ( 'NONE', ( #199 ) ) ;
#36 = CIRCLE ( 'NONE', #116, 1.878999999999999782 ) ;
#37 = DIRECTION ( 'NONE',  ( 2.015596951337211142E-30, -1.000000000000000000, 5.772899109937842645E-16 ) ) ;
#38 =( LENGTH_UNIT ( ) NAMED_UNIT ( * ) SI_UNIT ( .MILLI., .METRE. ) );
#39 = AXIS2_PLACEMENT_3D ( 'NONE', #168, #7, #138 ) ;
#40 = AXIS2_PLACEMENT_3D ( 'NONE', #90, #166, #49 ) ;
#41 = CARTESIAN_POINT ( 'NONE',  ( -1.892735826383168144E-31, 1.734662432702592572, -5.421010862427522170E-17 ) ) ;
#42 = CARTESIAN_POINT ( 'NONE',  ( 8.728703347107831416E-16, 1.878999999999998671, 0.2499999999999999445 ) ) ;
#43 = DIRECTION ( 'NONE',  ( -3.491481338843133355E-15, 1.049697256412017316E-16, -1.000000000000000000 ) ) ;
#44 = LOCAL_TIME ( 14, 2, 6.000000000000000000, #195 ) ;
#45 = DATE_AND_TIME ( #142, #44 ) ;
#46 = COORDINATED_UNIVERSAL_TIME_OFFSET ( 1, 0, .AHEAD. ) ;
#47 = APPLICATION_PROTOCOL_DEFINITION ( 'international standard', 'config_control_design', 1994, #103 ) ;
#48 = DIRECTION ( 'NONE',  ( 0.0000000000000000000, 0.0000000000000000000, 1.000000000000000000 ) ) ;
#49 = DIRECTION ( 'NONE',  ( 3.664998382197393967E-31, 1.000000000000000000, 1.049697256412017316E-16 ) ) ;
#50 = ORIENTED_EDGE ( 'NONE', *, *, #183, .F. ) ;
#51 = AXIS2_PLACEMENT_3D ( 'NONE', #153, #74, #230 ) ;
#52 = EDGE_CURVE ( 'NONE', #151, #151, #20, .T. ) ;
#53 = ORIENTED_EDGE ( 'NONE', *, *, #183, .T. ) ;
#54 = DIRECTION ( 'NONE',  ( -3.491481338843133355E-15, -5.772899109937842645E-16, -1.000000000000000000 ) ) ;
#55 = ORIENTED_EDGE ( 'NONE', *, *, #240, .F. ) ;
#56 = PLANE ( 'NONE',  #39 ) ;
#57 = VERTEX_POINT ( 'NONE', #132 ) ;
#58 = CARTESIAN_POINT ( 'NONE',  ( 3.640247946427986694E-14, -1.094423229336531448E-15, 10.42608449866195208 ) ) ;
#59 = APPROVAL_PERSON_ORGANIZATION ( #161, #91, #238 ) ;
#60 = FACE_OUTER_BOUND ( 'NONE', #87, .T. ) ;
#61 = DIRECTION ( 'NONE',  ( -3.491481338843133355E-15, -5.772899109937842645E-16, -1.000000000000000000 ) ) ;
#62 = PERSON_AND_ORGANIZATION ( #135, #150 ) ;
#63 = CC_DESIGN_PERSON_AND_ORGANIZATION_ASSIGNMENT ( #141, #217, ( #122 ) ) ;
#64 = DATE_AND_TIME ( #158, #11 ) ;
#65 = PERSON_AND_ORGANIZATION_ROLE ( 'creator' ) ;
#66 = ADVANCED_FACE ( 'NONE', ( #165 ), #243, .T. ) ;
#67 = FACE_OUTER_BOUND ( 'NONE', #223, .T. ) ;
#68 = DIRECTION ( 'NONE',  ( -3.491481338843133355E-15, 1.049697256412017316E-16, -1.000000000000000000 ) ) ;
#69 = CARTESIAN_POINT ( 'NONE',  ( -1.842826946796425864E-30, 1.734662432702592572, -5.278066150017080907E-16 ) ) ;
#70 = ORIENTED_EDGE ( 'NONE', *, *, #52, .F. ) ;
#71 = EDGE_CURVE ( 'NONE', #232, #232, #219, .T. ) ;
#72 = CARTESIAN_POINT ( 'NONE',  ( 8.728703347107869873E-16, 1.443224777484466578E-16, 0.2500000000000010547 ) ) ;
#73 = DIRECTION ( 'NONE',  ( -3.279923268780829641E-30, 1.000000000000000000, -9.232163256928227230E-16 ) ) ;
#74 = DIRECTION ( 'NONE',  ( -3.491481338843133355E-15, 1.049697256412017316E-16, -1.000000000000000000 ) ) ;
#75 = ADVANCED_FACE ( 'NONE', ( #186 ), #221, .T. ) ;
#76 = LOCAL_TIME ( 14, 2, 6.000000000000000000, #236 ) ;
#77 = ADVANCED_FACE ( 'NONE', ( #201, #31 ), #86, .T. ) ;
#78 = DATE_AND_TIME ( #160, #93 ) ;
#79 = APPLICATION_CONTEXT ( 'configuration controlled 3d designs of mechanical parts and assemblies' ) ;
#80 = APPROVAL_DATE_TIME ( #157, #102 ) ;
#81 = AXIS2_PLACEMENT_3D ( 'NONE', #212, #233, #172 ) ;
#82 = DATE_AND_TIME ( #218, #128 ) ;
#83 = PERSON_AND_ORGANIZATION ( #135, #150 ) ;
#84 = CIRCLE ( 'NONE', #51, 1.499999999999992673 ) ;
#85 = ADVANCED_FACE ( 'NONE', ( #228 ), #56, .T. ) ;
#86 = CYLINDRICAL_SURFACE ( 'NONE', #155, 1.499999999999995337 ) ;
#87 = EDGE_LOOP ( 'NONE', ( #50 ) ) ;
#88 = AXIS2_PLACEMENT_3D ( 'NONE', #5, #192, #113 ) ;
#89 = DIRECTION ( 'NONE',  ( -2.015596951337211142E-30, 1.000000000000000000, -5.772899109937842645E-16 ) ) ;
#90 = CARTESIAN_POINT ( 'NONE',  ( 3.640247946427987325E-14, 1.878999999999998671, 10.42608449866195386 ) ) ;
#91 = APPROVAL ( #118, 'UNSPECIFIED' ) ;
#92 = EDGE_LOOP ( 'NONE', ( #203 ) ) ;
#93 = LOCAL_TIME ( 14, 2, 6.000000000000000000, #9 ) ;
#94 = FACE_BOUND ( 'NONE', #164, .T. ) ;
#95 = CARTESIAN_POINT ( 'NONE',  ( 3.640247946427986694E-14, 1.878999999999998671, 10.42608449866195208 ) ) ;
#96 = CIRCLE ( 'NONE', #26, 1.499999999999997558 ) ;
#97 = CARTESIAN_POINT ( 'NONE',  ( 3.640247946427986694E-14, -1.094423229336531448E-15, 10.42608449866195208 ) ) ;
#98 = PERSON_AND_ORGANIZATION_ROLE ( 'design_owner' ) ;
#99 = APPROVAL_ROLE ( '' ) ;
#100 = SHAPE_DEFINITION_REPRESENTATION ( #28, #6 ) ;
#101 = PERSON_AND_ORGANIZATION ( #135, #150 ) ;
#102 = APPROVAL ( #198, 'UNSPECIFIED' ) ;
#103 = APPLICATION_CONTEXT ( 'configuration controlled 3d designs of mechanical parts and assemblies' ) ;
#104 = AXIS2_PLACEMENT_3D ( 'NONE', #214, #61, #73 ) ;
#105 = CARTESIAN_POINT ( 'NONE',  ( 0.0000000000000000000, 0.0000000000000000000, 0.0000000000000000000 ) ) ;
#106 = CARTESIAN_POINT ( 'NONE',  ( 2.433562493173664138E-13, -7.316389877191761450E-15, 69.70000000000001705 ) ) ;
#107 = AXIS2_PLACEMENT_3D ( 'NONE', #148, #147, #37 ) ;
#108 = DIRECTION ( 'NONE',  ( -2.049952042988012132E-30, 1.000000000000000000, -5.770102035580124023E-16 ) ) ;
#109 = DIRECTION ( 'NONE',  ( -2.015596951337211142E-30, 1.000000000000000000, -5.772899109937842645E-16 ) ) ;
#110 = CC_DESIGN_DATE_AND_TIME_ASSIGNMENT ( #45, #176, ( #193 ) ) ;
#111 =( NAMED_UNIT ( * ) SI_UNIT ( $, .STERADIAN. ) SOLID_ANGLE_UNIT ( ) );
#112 = CC_DESIGN_APPROVAL ( #102, ( #193 ) ) ;
#113 = DIRECTION ( 'NONE',  ( -2.015596951337210792E-30, 1.000000000000000000, -5.772899109937842645E-16 ) ) ;
#114 = CYLINDRICAL_SURFACE ( 'NONE', #88, 1.878999999999995785 ) ;
#115 = ADVANCED_FACE ( 'NONE', ( #156 ), #152, .T. ) ;
#116 = AXIS2_PLACEMENT_3D ( 'NONE', #97, #229, #209 ) ;
#117 = DATE_TIME_ROLE ( 'classification_date' ) ;
#118 = APPROVAL_STATUS ( 'not_yet_approved' ) ;
#119 = AXIS2_PLACEMENT_3D ( 'NONE', #69, #225, #109 ) ;
#120 = DESIGN_CONTEXT ( 'detailed design', #103, 'design' ) ;
#121 = PERSON_AND_ORGANIZATION_ROLE ( 'classification_officer' ) ;
#122 = PRODUCT_DEFINITION_FORMATION_WITH_SPECIFIED_SOURCE ( 'ANY', '', #194, .NOT_KNOWN. ) ;
#123 = ORIENTED_EDGE ( 'NONE', *, *, #240, .T. ) ;
#124 = DIRECTION ( 'NONE',  ( -3.491481338843133355E-15, 1.049697256412017316E-16, -1.000000000000000000 ) ) ;
#125 = CC_DESIGN_PERSON_AND_ORGANIZATION_ASSIGNMENT ( #220, #121, ( #239 ) ) ;
#126 = MANIFOLD_SOLID_BREP ( 'Corps-Déplacer/Copier1[2]', #3 ) ;
#127 = EDGE_LOOP ( 'NONE', ( #224 ) ) ;
#128 = LOCAL_TIME ( 14, 2, 6.000000000000000000, #46 ) ;
#129 = EDGE_LOOP ( 'NONE', ( #55 ) ) ;
#130 = VERTEX_POINT ( 'NONE', #95 ) ;
#131 = PRODUCT_RELATED_PRODUCT_CATEGORY ( 'detail', '', ( #194 ) ) ;
#132 = CARTESIAN_POINT ( 'NONE',  ( 3.640247946427986694E-14, 1.878999999999998671, 10.42608449866195208 ) ) ;
#133 = MANIFOLD_SOLID_BREP ( 'Corps-Déplacer/Copier1[1]', #202 ) ;
#134 = FACE_OUTER_BOUND ( 'NONE', #127, .T. ) ;
#135 = PERSON ( 'UNSPECIFIED', 'UNSPECIFIED', 'UNSPECIFIED', ('UNSPECIFIED'), ('UNSPECIFIED'), ('UNSPECIFIED') ) ;
#136 =( GEOMETRIC_REPRESENTATION_CONTEXT ( 3 ) GLOBAL_UNCERTAINTY_ASSIGNED_CONTEXT ( ( #18 ) ) GLOBAL_UNIT_ASSIGNED_CONTEXT ( ( #38, #188, #111 ) ) REPRESENTATION_CONTEXT ( 'NONE', 'WORKASPACE' ) );
#137 = VERTEX_POINT ( 'NONE', #8 ) ;
#138 = DIRECTION ( 'NONE',  ( -3.664998382197393967E-31, -1.000000000000000000, -1.049697256412017316E-16 ) ) ;
#139 = APPROVAL_ROLE ( '' ) ;
#140 = APPROVAL_PERSON_ORGANIZATION ( #101, #175, #139 ) ;
#141 = PERSON_AND_ORGANIZATION ( #135, #150 ) ;
#142 = CALENDAR_DATE ( 2021, 26, 11 ) ;
#143 = CIRCLE ( 'NONE', #104, 1.878999999999992676 ) ;
#144 = PERSON_AND_ORGANIZATION ( #135, #150 ) ;
#145 = EDGE_LOOP ( 'NONE', ( #1 ) ) ;
#146 = CC_DESIGN_APPROVAL ( #91, ( #122 ) ) ;
#147 = DIRECTION ( 'NONE',  ( 3.491481338843133355E-15, 5.772899109937842645E-16, 1.000000000000000000 ) ) ;
#148 = CARTESIAN_POINT ( 'NONE',  ( 3.307106728316219500E-30, 5.468049700271908048E-31, 9.471930127548657379E-16 ) ) ;
#149 = EDGE_LOOP ( 'NONE', ( #123 ) ) ;
#150 = ORGANIZATION ( 'UNSPECIFIED', 'UNSPECIFIED', '' ) ;
#151 = VERTEX_POINT ( 'NONE', #41 ) ;
#152 = PLANE ( 'NONE',  #81 ) ;
#153 = CARTESIAN_POINT ( 'NONE',  ( 3.869445280877825814E-14, -1.163330317703974832E-15, 11.08253175473057794 ) ) ;
#154 = DIRECTION ( 'NONE',  ( -3.491481338843133355E-15, 1.049697256412017316E-16, -1.000000000000000000 ) ) ;
#155 = AXIS2_PLACEMENT_3D ( 'NONE', #105, #154, #213 ) ;
#156 = FACE_OUTER_BOUND ( 'NONE', #14, .T. ) ;
#157 = DATE_AND_TIME ( #235, #76 ) ;
#158 = CALENDAR_DATE ( 2021, 26, 11 ) ;
#159 = AXIS2_PLACEMENT_3D ( 'NONE', #200, #48, #27 ) ;
#160 = CALENDAR_DATE ( 2021, 26, 11 ) ;
#161 = PERSON_AND_ORGANIZATION ( #135, #150 ) ;
#162 = CC_DESIGN_SECURITY_CLASSIFICATION ( #239, ( #122 ) ) ;
#163 = EDGE_CURVE ( 'NONE', #191, #191, #84, .T. ) ;
#164 = EDGE_LOOP ( 'NONE', ( #182 ) ) ;
#165 = FACE_OUTER_BOUND ( 'NONE', #92, .T. ) ;
#166 = DIRECTION ( 'NONE',  ( -3.491481338843133355E-15, 1.049697256412017316E-16, -1.000000000000000000 ) ) ;
#167 = CARTESIAN_POINT ( 'NONE',  ( 2.444036937190193601E-13, -7.347880794884121511E-15, 70.00000000000000000 ) ) ;
#168 = CARTESIAN_POINT ( 'NONE',  ( 2.444036937190193601E-13, -7.347880794884121511E-15, 70.00000000000000000 ) ) ;
#169 = DIRECTION ( 'NONE',  ( 0.0000000000000000000, 1.000000000000000000, 0.0000000000000000000 ) ) ;
#170 = CARTESIAN_POINT ( 'NONE',  ( 3.869445280877825814E-14, 1.499999999999991562, 11.08253175473057794 ) ) ;
#171 = EDGE_CURVE ( 'NONE', #130, #130, #143, .T. ) ;
#172 = DIRECTION ( 'NONE',  ( 2.015596951337211142E-30, -1.000000000000000000, 5.772899109937842645E-16 ) ) ;
#173 = CONICAL_SURFACE ( 'NONE', #181, 1.878999999999999782, 0.5235987755982931535 ) ;
#174 = DIRECTION ( 'NONE',  ( 0.0000000000000000000, 1.000000000000000000, 0.0000000000000000000 ) ) ;
#175 = APPROVAL ( #180, 'UNSPECIFIED' ) ;
#176 = DATE_TIME_ROLE ( 'creation_date' ) ;
#177 = AXIS2_PLACEMENT_3D ( 'NONE', #167, #124, #204 ) ;
#178 = PERSON_AND_ORGANIZATION ( #135, #150 ) ;
#179 = SECURITY_CLASSIFICATION_LEVEL ( 'unclassified' ) ;
#180 = APPROVAL_STATUS ( 'not_yet_approved' ) ;
#181 = AXIS2_PLACEMENT_3D ( 'NONE', #58, #43, #169 ) ;
#182 = ORIENTED_EDGE ( 'NONE', *, *, #163, .T. ) ;
#183 = EDGE_CURVE ( 'NONE', #57, #57, #36, .T. ) ;
#184 = FACE_OUTER_BOUND ( 'NONE', #129, .T. ) ;
#185 = APPROVAL_PERSON_ORGANIZATION ( #178, #102, #99 ) ;
#186 = FACE_OUTER_BOUND ( 'NONE', #226, .T. ) ;
#187 = CARTESIAN_POINT ( 'NONE',  ( 3.307106728316219500E-30, 5.468049700271908048E-31, 9.471930127548657379E-16 ) ) ;
#188 =( NAMED_UNIT ( * ) PLANE_ANGLE_UNIT ( ) SI_UNIT ( $, .RADIAN. ) );
#189 = AXIS2_PLACEMENT_3D ( 'NONE', #106, #68, #205 ) ;
#190 = CARTESIAN_POINT ( 'NONE',  ( 2.433562493173664138E-13, 1.499999999999990230, 69.70000000000001705 ) ) ;
#191 = VERTEX_POINT ( 'NONE', #170 ) ;
#192 = DIRECTION ( 'NONE',  ( -3.491481338843133355E-15, -5.772899109937842645E-16, -1.000000000000000000 ) ) ;
#193 = PRODUCT_DEFINITION ( 'UNKNOWN', '', #122, #120 ) ;
#194 = PRODUCT ( '321279', '321279', '', ( #29 ) ) ;
#195 = COORDINATED_UNIVERSAL_TIME_OFFSET ( 1, 0, .AHEAD. ) ;
#196 = APPROVAL_DATE_TIME ( #64, #91 ) ;
#197 = CONICAL_SURFACE ( 'NONE', #107, 1.734662432702592572, 0.5235987755982970393 ) ;
#198 = APPROVAL_STATUS ( 'not_yet_approved' ) ;
#199 = ORIENTED_EDGE ( 'NONE', *, *, #71, .F. ) ;
#200 = CARTESIAN_POINT ( 'NONE',  ( 0.0000000000000000000, 0.0000000000000000000, 0.0000000000000000000 ) ) ;
#201 = FACE_OUTER_BOUND ( 'NONE', #149, .T. ) ;
#202 = CLOSED_SHELL ( 'NONE', ( #85, #13, #77, #215, #75 ) ) ;
#203 = ORIENTED_EDGE ( 'NONE', *, *, #52, .T. ) ;
#204 = DIRECTION ( 'NONE',  ( 0.0000000000000000000, 1.000000000000000000, 0.0000000000000000000 ) ) ;
#205 = DIRECTION ( 'NONE',  ( 0.0000000000000000000, 1.000000000000000000, 0.0000000000000000000 ) ) ;
#206 = CONICAL_SURFACE ( 'NONE', #189, 1.499999999999997558, 0.7853981633974573828 ) ;
#207 = FACE_BOUND ( 'NONE', #15, .T. ) ;
#208 = VERTEX_POINT ( 'NONE', #190 ) ;
#209 = DIRECTION ( 'NONE',  ( 0.0000000000000000000, 1.000000000000000000, 0.0000000000000000000 ) ) ;
#210 = CC_DESIGN_DATE_AND_TIME_ASSIGNMENT ( #82, #117, ( #239 ) ) ;
#211 = AXIS2_PLACEMENT_3D ( 'NONE', #187, #2, #89 ) ;
#212 = CARTESIAN_POINT ( 'NONE',  ( 3.640247946427987325E-14, 6.018873392246233408E-15, 10.42608449866195386 ) ) ;
#213 = DIRECTION ( 'NONE',  ( 3.664998382197393967E-31, 1.000000000000000000, 1.049697256412017316E-16 ) ) ;
#214 = CARTESIAN_POINT ( 'NONE',  ( 3.640247946427987325E-14, 6.018873392246233408E-15, 10.42608449866195386 ) ) ;
#215 = ADVANCED_FACE ( 'NONE', ( #94, #60 ), #173, .T. ) ;
#216 = APPROVAL_DATE_TIME ( #78, #175 ) ;
#217 = PERSON_AND_ORGANIZATION_ROLE ( 'design_supplier' ) ;
#218 = CALENDAR_DATE ( 2021, 26, 11 ) ;
#219 = CIRCLE ( 'NONE', #227, 1.878999999999998449 ) ;
#220 = PERSON_AND_ORGANIZATION ( #135, #150 ) ;
#221 = PLANE ( 'NONE',  #40 ) ;
#222 = ADVANCED_FACE ( 'NONE', ( #134, #22 ), #114, .T. ) ;
#223 = EDGE_LOOP ( 'NONE', ( #16 ) ) ;
#224 = ORIENTED_EDGE ( 'NONE', *, *, #171, .T. ) ;
#225 = DIRECTION ( 'NONE',  ( -3.491481338843133355E-15, -5.772899109937842645E-16, -1.000000000000000000 ) ) ;
#226 = EDGE_LOOP ( 'NONE', ( #53 ) ) ;
#227 = AXIS2_PLACEMENT_3D ( 'NONE', #72, #54, #108 ) ;
#228 = FACE_OUTER_BOUND ( 'NONE', #145, .T. ) ;
#229 = DIRECTION ( 'NONE',  ( -3.491481338843133355E-15, 1.049697256412017316E-16, -1.000000000000000000 ) ) ;
#230 = DIRECTION ( 'NONE',  ( 0.0000000000000000000, 1.000000000000000000, 0.0000000000000000000 ) ) ;
#231 = CIRCLE ( 'NONE', #177, 1.199999999999997513 ) ;
#232 = VERTEX_POINT ( 'NONE', #42 ) ;
#233 = DIRECTION ( 'NONE',  ( 3.491481338843133355E-15, 5.772899109937842645E-16, 1.000000000000000000 ) ) ;
#234 = CC_DESIGN_PERSON_AND_ORGANIZATION_ASSIGNMENT ( #62, #12, ( #122 ) ) ;
#235 = CALENDAR_DATE ( 2021, 26, 11 ) ;
#236 = COORDINATED_UNIVERSAL_TIME_OFFSET ( 1, 0, .AHEAD. ) ;
#237 = APPLICATION_PROTOCOL_DEFINITION ( 'international standard', 'config_control_design', 1994, #79 ) ;
#238 = APPROVAL_ROLE ( '' ) ;
#239 = SECURITY_CLASSIFICATION ( '', '', #179 ) ;
#240 = EDGE_CURVE ( 'NONE', #208, #208, #96, .T. ) ;
#241 = ORIENTED_EDGE ( 'NONE', *, *, #33, .T. ) ;
#242 = FACE_BOUND ( 'NONE', #17, .T. ) ;
#243 = PLANE ( 'NONE',  #119 ) ;
ENDSEC;
END-ISO-10303-21;
