ISO-10303-21;
HEADER;
FILE_DESCRIPTION (( 'STEP AP203' ),
    '1' );
FILE_NAME ('321278.step',
    '2021-11-26T13:02:05',
    ( '' ),
    ( '' ),
    'SwSTEP 2.0',
    'SolidWorks 2019',
    '' );
FILE_SCHEMA (( 'CONFIG_CONTROL_DESIGN' ));
ENDSEC;

DATA;
#1 = APPROVAL_STATUS ( 'not_yet_approved' ) ;
#2 = DIRECTION ( 'NONE',  ( 2.013214378544622244E-30, -1.000000000000000000, 5.766075150244624480E-16 ) ) ;
#3 = APPLICATION_CONTEXT ( 'configuration controlled 3d designs of mechanical parts and assemblies' ) ;
#4 = APPROVAL_ROLE ( '' ) ;
#5 = AXIS2_PLACEMENT_3D ( 'NONE', #87, #196, #238 ) ;
#6 = FACE_OUTER_BOUND ( 'NONE', #136, .T. ) ;
#7 = EDGE_LOOP ( 'NONE', ( #210 ) ) ;
#8 = SHAPE_DEFINITION_REPRESENTATION ( #232, #105 ) ;
#9 = EDGE_CURVE ( 'NONE', #16, #16, #21, .T. ) ;
#10 = DIRECTION ( 'NONE',  ( 0.0000000000000000000, 1.000000000000000000, 0.0000000000000000000 ) ) ;
#11 = CC_DESIGN_APPROVAL ( #119, ( #89 ) ) ;
#12 = CARTESIAN_POINT ( 'NONE',  ( 2.433562493173664138E-13, -7.316389877191761450E-15, 69.70000000000001705 ) ) ;
#13 = DIRECTION ( 'NONE',  ( 0.0000000000000000000, 1.000000000000000000, 0.0000000000000000000 ) ) ;
#14 = ADVANCED_FACE ( 'NONE', ( #191, #6 ), #185, .T. ) ;
#15 = AXIS2_PLACEMENT_3D ( 'NONE', #216, #108, #200 ) ;
#16 = VERTEX_POINT ( 'NONE', #176 ) ;
#17 = CC_DESIGN_PERSON_AND_ORGANIZATION_ASSIGNMENT ( #24, #181, ( #89 ) ) ;
#18 = CLOSED_SHELL ( 'NONE', ( #192, #234, #14, #197, #104 ) ) ;
#19 = VERTEX_POINT ( 'NONE', #48 ) ;
#20 = CALENDAR_DATE ( 2021, 26, 11 ) ;
#21 = CIRCLE ( 'NONE', #233, 1.873999999999998556 ) ;
#22 = PERSON_AND_ORGANIZATION ( #40, #162 ) ;
#23 = EDGE_LOOP ( 'NONE', ( #227 ) ) ;
#24 = PERSON_AND_ORGANIZATION ( #40, #162 ) ;
#25 = EDGE_LOOP ( 'NONE', ( #139 ) ) ;
#26 = CONICAL_SURFACE ( 'NONE', #126, 1.873999999999999888, 0.5235987755982935976 ) ;
#27 = FACE_OUTER_BOUND ( 'NONE', #56, .T. ) ;
#28 = CARTESIAN_POINT ( 'NONE',  ( 3.643271657964264830E-14, -1.095332293826867172E-15, 10.43474475269979784 ) ) ;
#29 = FACE_BOUND ( 'NONE', #73, .T. ) ;
#30 = AXIS2_PLACEMENT_3D ( 'NONE', #178, #65, #13 ) ;
#31 = PLANE ( 'NONE',  #5 ) ;
#32 = CARTESIAN_POINT ( 'NONE',  ( 3.292907696907013302E-30, 5.438136825178045076E-31, 9.431262485275332262E-16 ) ) ;
#33 = VERTEX_POINT ( 'NONE', #179 ) ;
#34 = PERSON_AND_ORGANIZATION ( #40, #162 ) ;
#35 = ADVANCED_FACE ( 'NONE', ( #122 ), #169, .T. ) ;
#36 = APPLICATION_PROTOCOL_DEFINITION ( 'international standard', 'config_control_design', 1994, #240 ) ;
#37 = CARTESIAN_POINT ( 'NONE',  ( 0.0000000000000000000, 0.0000000000000000000, 0.0000000000000000000 ) ) ;
#38 = EDGE_LOOP ( 'NONE', ( #156 ) ) ;
#39 = COORDINATED_UNIVERSAL_TIME_OFFSET ( 1, 0, .AHEAD. ) ;
#40 = PERSON ( 'UNSPECIFIED', 'UNSPECIFIED', 'UNSPECIFIED', ('UNSPECIFIED'), ('UNSPECIFIED'), ('UNSPECIFIED') ) ;
#41 = DIRECTION ( 'NONE',  ( 3.491481338843133355E-15, 5.766075150244624480E-16, 1.000000000000000000 ) ) ;
#42 = EDGE_LOOP ( 'NONE', ( #138 ) ) ;
#43 = AXIS2_PLACEMENT_3D ( 'NONE', #32, #85, #212 ) ;
#44 = EDGE_LOOP ( 'NONE', ( #93 ) ) ;
#45 = VERTEX_POINT ( 'NONE', #99 ) ;
#46 = FACE_OUTER_BOUND ( 'NONE', #207, .T. ) ;
#47 = CALENDAR_DATE ( 2021, 26, 11 ) ;
#48 = CARTESIAN_POINT ( 'NONE',  ( 3.869445280877825814E-14, 1.499999999999991562, 11.08253175473057794 ) ) ;
#49 = CIRCLE ( 'NONE', #43, 1.729662432702592678 ) ;
#50 = DIRECTION ( 'NONE',  ( -3.491481338843133355E-15, 1.049697256412017316E-16, -1.000000000000000000 ) ) ;
#51 = CARTESIAN_POINT ( 'NONE',  ( 3.643271657964265461E-14, 1.873999999999998778, 10.43474475269979962 ) ) ;
#52 = DATE_TIME_ROLE ( 'classification_date' ) ;
#53 = PRODUCT_DEFINITION_FORMATION_WITH_SPECIFIED_SOURCE ( 'ANY', '', #160, .NOT_KNOWN. ) ;
#54 = PERSON_AND_ORGANIZATION ( #40, #162 ) ;
#55 = SECURITY_CLASSIFICATION_LEVEL ( 'unclassified' ) ;
#56 = EDGE_LOOP ( 'NONE', ( #152 ) ) ;
#57 = ADVANCED_FACE ( 'NONE', ( #27, #118 ), #117, .T. ) ;
#58 = PERSON_AND_ORGANIZATION_ROLE ( 'design_owner' ) ;
#59 = ORIENTED_EDGE ( 'NONE', *, *, #149, .F. ) ;
#60 = EDGE_LOOP ( 'NONE', ( #78 ) ) ;
#61 = ADVANCED_FACE ( 'NONE', ( #80 ), #31, .T. ) ;
#62 = CIRCLE ( 'NONE', #109, 1.873999999999992561 ) ;
#63 = EDGE_LOOP ( 'NONE', ( #112 ) ) ;
#64 = APPROVAL_ROLE ( '' ) ;
#65 = DIRECTION ( 'NONE',  ( -3.491481338843133355E-15, 1.049697256412017316E-16, -1.000000000000000000 ) ) ;
#66 = CIRCLE ( 'NONE', #30, 1.499999999999997558 ) ;
#67 = DIRECTION ( 'NONE',  ( -3.288674398099882030E-30, 1.000000000000000000, -9.256795496140949331E-16 ) ) ;
#68 = FACE_OUTER_BOUND ( 'NONE', #42, .T. ) ;
#69 = DIRECTION ( 'NONE',  ( -3.491481338843133355E-15, 1.049697256412017316E-16, -1.000000000000000000 ) ) ;
#70 = CARTESIAN_POINT ( 'NONE',  ( 3.643271657964264830E-14, 1.873999999999998778, 10.43474475269979784 ) ) ;
#71 = AXIS2_PLACEMENT_3D ( 'NONE', #175, #102, #158 ) ;
#72 = APPROVAL_ROLE ( '' ) ;
#73 = EDGE_LOOP ( 'NONE', ( #154 ) ) ;
#74 = PRODUCT_DEFINITION ( 'UNKNOWN', '', #53, #103 ) ;
#75 = CALENDAR_DATE ( 2021, 26, 11 ) ;
#76 = APPROVAL_PERSON_ORGANIZATION ( #22, #187, #4 ) ;
#77 = DIRECTION ( 'NONE',  ( -3.491481338843133355E-15, 1.049697256412017316E-16, -1.000000000000000000 ) ) ;
#78 = ORIENTED_EDGE ( 'NONE', *, *, #94, .T. ) ;
#79 = LOCAL_TIME ( 14, 2, 5.000000000000000000, #205 ) ;
#80 = FACE_OUTER_BOUND ( 'NONE', #60, .T. ) ;
#81 = CC_DESIGN_PERSON_AND_ORGANIZATION_ASSIGNMENT ( #219, #189, ( #53 ) ) ;
#82 = DIRECTION ( 'NONE',  ( -3.491481338843133355E-15, 1.049697256412017316E-16, -1.000000000000000000 ) ) ;
#83 = EDGE_CURVE ( 'NONE', #147, #147, #157, .T. ) ;
#84 = FACE_OUTER_BOUND ( 'NONE', #25, .T. ) ;
#85 = DIRECTION ( 'NONE',  ( -3.491481338843133355E-15, -5.766075150244624480E-16, -1.000000000000000000 ) ) ;
#86 = AXIS2_PLACEMENT_3D ( 'NONE', #188, #77, #91 ) ;
#87 = CARTESIAN_POINT ( 'NONE',  ( -1.835727431091823115E-30, 1.729662432702592678, -5.257732328880418348E-16 ) ) ;
#88 = CALENDAR_DATE ( 2021, 26, 11 ) ;
#89 = SECURITY_CLASSIFICATION ( '', '', #55 ) ;
#90 = PERSON_AND_ORGANIZATION ( #40, #162 ) ;
#91 = DIRECTION ( 'NONE',  ( 3.664998382197393967E-31, 1.000000000000000000, 1.049697256412017316E-16 ) ) ;
#92 = COORDINATED_UNIVERSAL_TIME_OFFSET ( 1, 0, .AHEAD. ) ;
#93 = ORIENTED_EDGE ( 'NONE', *, *, #83, .F. ) ;
#94 = EDGE_CURVE ( 'NONE', #33, #33, #49, .T. ) ;
#95 = DATE_AND_TIME ( #47, #213 ) ;
#96 = ORIENTED_EDGE ( 'NONE', *, *, #220, .T. ) ;
#97 = COORDINATED_UNIVERSAL_TIME_OFFSET ( 1, 0, .AHEAD. ) ;
#98 = APPROVAL_DATE_TIME ( #95, #119 ) ;
#99 = CARTESIAN_POINT ( 'NONE',  ( 3.643271657964264830E-14, 1.873999999999998778, 10.43474475269979784 ) ) ;
#100 = CC_DESIGN_DATE_AND_TIME_ASSIGNMENT ( #170, #114, ( #74 ) ) ;
#101 = DIRECTION ( 'NONE',  ( -3.491481338843133355E-15, -5.766075150244624480E-16, -1.000000000000000000 ) ) ;
#102 = DIRECTION ( 'NONE',  ( -3.491481338843133355E-15, 1.049697256412017316E-16, -1.000000000000000000 ) ) ;
#103 = DESIGN_CONTEXT ( 'detailed design', #240, 'design' ) ;
#104 = ADVANCED_FACE ( 'NONE', ( #46 ), #123, .T. ) ;
#105 = ADVANCED_BREP_SHAPE_REPRESENTATION ( '321278', ( #134, #128, #167 ), #202 ) ;
#106 = CONICAL_SURFACE ( 'NONE', #140, 1.499999999999997558, 0.7853981633974573828 ) ;
#107 = CARTESIAN_POINT ( 'NONE',  ( 3.643271657964265461E-14, 6.016752241768780165E-15, 10.43474475269979962 ) ) ;
#108 = DIRECTION ( 'NONE',  ( 3.491481338843133355E-15, -1.049697256412017316E-16, 1.000000000000000000 ) ) ;
#109 = AXIS2_PLACEMENT_3D ( 'NONE', #107, #101, #67 ) ;
#110 = MECHANICAL_CONTEXT ( 'NONE', #3, 'mechanical' ) ;
#111 =( LENGTH_UNIT ( ) NAMED_UNIT ( * ) SI_UNIT ( .MILLI., .METRE. ) );
#112 = ORIENTED_EDGE ( 'NONE', *, *, #236, .F. ) ;
#113 = LOCAL_TIME ( 14, 2, 5.000000000000000000, #150 ) ;
#114 = DATE_TIME_ROLE ( 'creation_date' ) ;
#115 = DIRECTION ( 'NONE',  ( -2.055421498812419788E-30, 1.000000000000000000, -5.785497185088075090E-16 ) ) ;
#116 = PERSON_AND_ORGANIZATION ( #40, #162 ) ;
#117 = CYLINDRICAL_SURFACE ( 'NONE', #224, 1.873999999999995447 ) ;
#118 = FACE_OUTER_BOUND ( 'NONE', #226, .T. ) ;
#119 = APPROVAL ( #173, 'UNSPECIFIED' ) ;
#120 = AXIS2_PLACEMENT_3D ( 'NONE', #199, #82, #229 ) ;
#121 = AXIS2_PLACEMENT_3D ( 'NONE', #211, #132, #177 ) ;
#122 = FACE_OUTER_BOUND ( 'NONE', #63, .T. ) ;
#123 = PLANE ( 'NONE',  #143 ) ;
#124 = CC_DESIGN_PERSON_AND_ORGANIZATION_ASSIGNMENT ( #90, #58, ( #160 ) ) ;
#125 = FACE_OUTER_BOUND ( 'NONE', #44, .T. ) ;
#126 = AXIS2_PLACEMENT_3D ( 'NONE', #165, #69, #10 ) ;
#127 = DIRECTION ( 'NONE',  ( -2.013214378544622594E-30, 1.000000000000000000, -5.766075150244625467E-16 ) ) ;
#128 = MANIFOLD_SOLID_BREP ( 'Corps-Déplacer/Copier1[2]', #237 ) ;
#129 = APPROVAL_PERSON_ORGANIZATION ( #34, #119, #64 ) ;
#130 = CC_DESIGN_PERSON_AND_ORGANIZATION_ASSIGNMENT ( #116, #201, ( #53 ) ) ;
#131 = DIRECTION ( 'NONE',  ( 0.0000000000000000000, 1.000000000000000000, 0.0000000000000000000 ) ) ;
#132 = DIRECTION ( 'NONE',  ( 3.491481338843133355E-15, 5.766075150244624480E-16, 1.000000000000000000 ) ) ;
#133 = DATE_AND_TIME ( #20, #113 ) ;
#134 = MANIFOLD_SOLID_BREP ( 'Corps-Déplacer/Copier1[1]', #18 ) ;
#135 = APPROVAL_DATE_TIME ( #168, #155 ) ;
#136 = EDGE_LOOP ( 'NONE', ( #59 ) ) ;
#137 = CIRCLE ( 'NONE', #180, 1.873999999999999888 ) ;
#138 = ORIENTED_EDGE ( 'NONE', *, *, #9, .T. ) ;
#139 = ORIENTED_EDGE ( 'NONE', *, *, #220, .F. ) ;
#140 = AXIS2_PLACEMENT_3D ( 'NONE', #12, #50, #163 ) ;
#141 = CARTESIAN_POINT ( 'NONE',  ( 2.444036937190193601E-13, 1.199999999999990186, 70.00000000000000000 ) ) ;
#142 = ADVANCED_FACE ( 'NONE', ( #68, #194 ), #171, .T. ) ;
#143 = AXIS2_PLACEMENT_3D ( 'NONE', #51, #145, #159 ) ;
#144 = UNCERTAINTY_MEASURE_WITH_UNIT (LENGTH_MEASURE( 1.000000000000000082E-05 ), #111, 'distance_accuracy_value', 'NONE');
#145 = DIRECTION ( 'NONE',  ( -3.491481338843133355E-15, 1.049697256412017316E-16, -1.000000000000000000 ) ) ;
#146 = CC_DESIGN_SECURITY_CLASSIFICATION ( #89, ( #53 ) ) ;
#147 = VERTEX_POINT ( 'NONE', #141 ) ;
#148 = CARTESIAN_POINT ( 'NONE',  ( 2.433562493173664138E-13, 1.499999999999990230, 69.70000000000001705 ) ) ;
#149 = EDGE_CURVE ( 'NONE', #19, #19, #209, .T. ) ;
#150 = COORDINATED_UNIVERSAL_TIME_OFFSET ( 1, 0, .AHEAD. ) ;
#151 = APPROVAL_STATUS ( 'not_yet_approved' ) ;
#152 = ORIENTED_EDGE ( 'NONE', *, *, #236, .T. ) ;
#153 = AXIS2_PLACEMENT_3D ( 'NONE', #206, #41, #2 ) ;
#154 = ORIENTED_EDGE ( 'NONE', *, *, #83, .T. ) ;
#155 = APPROVAL ( #151, 'UNSPECIFIED' ) ;
#156 = ORIENTED_EDGE ( 'NONE', *, *, #161, .T. ) ;
#157 = CIRCLE ( 'NONE', #71, 1.199999999999997513 ) ;
#158 = DIRECTION ( 'NONE',  ( 0.0000000000000000000, 1.000000000000000000, 0.0000000000000000000 ) ) ;
#159 = DIRECTION ( 'NONE',  ( 3.664998382197393967E-31, 1.000000000000000000, 1.049697256412017316E-16 ) ) ;
#160 = PRODUCT ( '321278', '321278', '', ( #110 ) ) ;
#161 = EDGE_CURVE ( 'NONE', #239, #239, #66, .T. ) ;
#162 = ORGANIZATION ( 'UNSPECIFIED', 'UNSPECIFIED', '' ) ;
#163 = DIRECTION ( 'NONE',  ( 0.0000000000000000000, 1.000000000000000000, 0.0000000000000000000 ) ) ;
#164 = FACE_BOUND ( 'NONE', #23, .T. ) ;
#165 = CARTESIAN_POINT ( 'NONE',  ( 3.643271657964264830E-14, -1.095332293826867172E-15, 10.43474475269979784 ) ) ;
#166 = APPROVAL_DATE_TIME ( #133, #187 ) ;
#167 = AXIS2_PLACEMENT_3D ( 'NONE', #37, #218, #223 ) ;
#168 = DATE_AND_TIME ( #203, #79 ) ;
#169 = PLANE ( 'NONE',  #153 ) ;
#170 = DATE_AND_TIME ( #88, #214 ) ;
#171 = CONICAL_SURFACE ( 'NONE', #121, 1.729662432702592678, 0.5235987755982970393 ) ;
#172 = CARTESIAN_POINT ( 'NONE',  ( 0.0000000000000000000, 0.0000000000000000000, 0.0000000000000000000 ) ) ;
#173 = APPROVAL_STATUS ( 'not_yet_approved' ) ;
#174 = PRODUCT_RELATED_PRODUCT_CATEGORY ( 'detail', '', ( #160 ) ) ;
#175 = CARTESIAN_POINT ( 'NONE',  ( 2.444036937190193601E-13, -7.347880794884121511E-15, 70.00000000000000000 ) ) ;
#176 = CARTESIAN_POINT ( 'NONE',  ( 8.728703347107831416E-16, 1.873999999999998778, 0.2499999999999999445 ) ) ;
#177 = DIRECTION ( 'NONE',  ( 2.013214378544622594E-30, -1.000000000000000000, 5.766075150244624480E-16 ) ) ;
#178 = CARTESIAN_POINT ( 'NONE',  ( 2.433562493173664138E-13, -7.316389877191761450E-15, 69.70000000000001705 ) ) ;
#179 = CARTESIAN_POINT ( 'NONE',  ( -1.892735826383161356E-31, 1.729662432702592678, -5.421010862427522170E-17 ) ) ;
#180 = AXIS2_PLACEMENT_3D ( 'NONE', #28, #195, #131 ) ;
#181 = PERSON_AND_ORGANIZATION_ROLE ( 'classification_officer' ) ;
#182 = CC_DESIGN_DATE_AND_TIME_ASSIGNMENT ( #217, #52, ( #89 ) ) ;
#183 = APPLICATION_PROTOCOL_DEFINITION ( 'international standard', 'config_control_design', 1994, #3 ) ;
#184 = APPROVAL_PERSON_ORGANIZATION ( #241, #155, #72 ) ;
#185 = CYLINDRICAL_SURFACE ( 'NONE', #86, 1.499999999999995337 ) ;
#186 = PERSON_AND_ORGANIZATION_ROLE ( 'creator' ) ;
#187 = APPROVAL ( #1, 'UNSPECIFIED' ) ;
#188 = CARTESIAN_POINT ( 'NONE',  ( 0.0000000000000000000, 0.0000000000000000000, 0.0000000000000000000 ) ) ;
#189 = PERSON_AND_ORGANIZATION_ROLE ( 'design_supplier' ) ;
#190 = ORIENTED_EDGE ( 'NONE', *, *, #94, .F. ) ;
#191 = FACE_OUTER_BOUND ( 'NONE', #38, .T. ) ;
#192 = ADVANCED_FACE ( 'NONE', ( #125 ), #215, .T. ) ;
#193 = CC_DESIGN_APPROVAL ( #187, ( #53 ) ) ;
#194 = FACE_BOUND ( 'NONE', #222, .T. ) ;
#195 = DIRECTION ( 'NONE',  ( -3.491481338843133355E-15, 1.049697256412017316E-16, -1.000000000000000000 ) ) ;
#196 = DIRECTION ( 'NONE',  ( -3.491481338843133355E-15, -5.766075150244624480E-16, -1.000000000000000000 ) ) ;
#197 = ADVANCED_FACE ( 'NONE', ( #164, #84 ), #26, .T. ) ;
#198 = CC_DESIGN_APPROVAL ( #155, ( #74 ) ) ;
#199 = CARTESIAN_POINT ( 'NONE',  ( 3.869445280877825814E-14, -1.163330317703974832E-15, 11.08253175473057794 ) ) ;
#200 = DIRECTION ( 'NONE',  ( -3.664998382197393967E-31, -1.000000000000000000, -1.049697256412017316E-16 ) ) ;
#201 = PERSON_AND_ORGANIZATION_ROLE ( 'creator' ) ;
#202 =( GEOMETRIC_REPRESENTATION_CONTEXT ( 3 ) GLOBAL_UNCERTAINTY_ASSIGNED_CONTEXT ( ( #144 ) ) GLOBAL_UNIT_ASSIGNED_CONTEXT ( ( #111, #204, #242 ) ) REPRESENTATION_CONTEXT ( 'NONE', 'WORKASPACE' ) );
#203 = CALENDAR_DATE ( 2021, 26, 11 ) ;
#204 =( NAMED_UNIT ( * ) PLANE_ANGLE_UNIT ( ) SI_UNIT ( $, .RADIAN. ) );
#205 = COORDINATED_UNIVERSAL_TIME_OFFSET ( 1, 0, .AHEAD. ) ;
#206 = CARTESIAN_POINT ( 'NONE',  ( 3.643271657964265461E-14, 6.016752241768780165E-15, 10.43474475269979962 ) ) ;
#207 = EDGE_LOOP ( 'NONE', ( #96 ) ) ;
#208 = DIRECTION ( 'NONE',  ( -3.491481338843133355E-15, -5.766075150244624480E-16, -1.000000000000000000 ) ) ;
#209 = CIRCLE ( 'NONE', #120, 1.499999999999992673 ) ;
#210 = ORIENTED_EDGE ( 'NONE', *, *, #161, .F. ) ;
#211 = CARTESIAN_POINT ( 'NONE',  ( 3.292907696907013302E-30, 5.438136825178045076E-31, 9.431262485275332262E-16 ) ) ;
#212 = DIRECTION ( 'NONE',  ( -2.013214378544622244E-30, 1.000000000000000000, -5.766075150244624480E-16 ) ) ;
#213 = LOCAL_TIME ( 14, 2, 5.000000000000000000, #97 ) ;
#214 = LOCAL_TIME ( 14, 2, 5.000000000000000000, #39 ) ;
#215 = PLANE ( 'NONE',  #15 ) ;
#216 = CARTESIAN_POINT ( 'NONE',  ( 2.444036937190193601E-13, -7.347880794884121511E-15, 70.00000000000000000 ) ) ;
#217 = DATE_AND_TIME ( #75, #228 ) ;
#218 = DIRECTION ( 'NONE',  ( 0.0000000000000000000, 0.0000000000000000000, 1.000000000000000000 ) ) ;
#219 = PERSON_AND_ORGANIZATION ( #40, #162 ) ;
#220 = EDGE_CURVE ( 'NONE', #45, #45, #137, .T. ) ;
#221 = VERTEX_POINT ( 'NONE', #70 ) ;
#222 = EDGE_LOOP ( 'NONE', ( #190 ) ) ;
#223 = DIRECTION ( 'NONE',  ( 1.000000000000000000, 0.0000000000000000000, 0.0000000000000000000 ) ) ;
#224 = AXIS2_PLACEMENT_3D ( 'NONE', #172, #235, #127 ) ;
#225 = CARTESIAN_POINT ( 'NONE',  ( 8.728703347107869873E-16, 1.441518787561162037E-16, 0.2500000000000010547 ) ) ;
#226 = EDGE_LOOP ( 'NONE', ( #243 ) ) ;
#227 = ORIENTED_EDGE ( 'NONE', *, *, #149, .T. ) ;
#228 = LOCAL_TIME ( 14, 2, 5.000000000000000000, #92 ) ;
#229 = DIRECTION ( 'NONE',  ( 0.0000000000000000000, 1.000000000000000000, 0.0000000000000000000 ) ) ;
#230 = CC_DESIGN_PERSON_AND_ORGANIZATION_ASSIGNMENT ( #54, #186, ( #74 ) ) ;
#231 = FACE_OUTER_BOUND ( 'NONE', #7, .T. ) ;
#232 = PRODUCT_DEFINITION_SHAPE ( 'NONE', 'NONE',  #74 ) ;
#233 = AXIS2_PLACEMENT_3D ( 'NONE', #225, #208, #115 ) ;
#234 = ADVANCED_FACE ( 'NONE', ( #29, #231 ), #106, .T. ) ;
#235 = DIRECTION ( 'NONE',  ( -3.491481338843133355E-15, -5.766075150244624480E-16, -1.000000000000000000 ) ) ;
#236 = EDGE_CURVE ( 'NONE', #221, #221, #62, .T. ) ;
#237 = CLOSED_SHELL ( 'NONE', ( #35, #57, #142, #61 ) ) ;
#238 = DIRECTION ( 'NONE',  ( -2.013214378544622244E-30, 1.000000000000000000, -5.766075150244624480E-16 ) ) ;
#239 = VERTEX_POINT ( 'NONE', #148 ) ;
#240 = APPLICATION_CONTEXT ( 'configuration controlled 3d designs of mechanical parts and assemblies' ) ;
#241 = PERSON_AND_ORGANIZATION ( #40, #162 ) ;
#242 =( NAMED_UNIT ( * ) SI_UNIT ( $, .STERADIAN. ) SOLID_ANGLE_UNIT ( ) );
#243 = ORIENTED_EDGE ( 'NONE', *, *, #9, .F. ) ;
ENDSEC;
END-ISO-10303-21;
