ISO-10303-21;
HEADER;
FILE_DESCRIPTION (( 'STEP AP203' ),
    '1' );
FILE_NAME ('321277.step',
    '2021-11-26T13:02:05',
    ( '' ),
    ( '' ),
    'SwSTEP 2.0',
    'SolidWorks 2019',
    '' );
FILE_SCHEMA (( 'CONFIG_CONTROL_DESIGN' ));
ENDSEC;

DATA;
#1 = MECHANICAL_CONTEXT ( 'NONE', #103, 'mechanical' ) ;
#2 = APPROVAL_PERSON_ORGANIZATION ( #224, #43, #209 ) ;
#3 = CARTESIAN_POINT ( 'NONE',  ( -1.892735826383154569E-31, 1.724662432702592563, -5.421010862427522170E-17 ) ) ;
#4 = CC_DESIGN_APPROVAL ( #43, ( #114 ) ) ;
#5 = PERSON_AND_ORGANIZATION ( #207, #134 ) ;
#6 = APPROVAL ( #187, 'UNSPECIFIED' ) ;
#7 = PERSON_AND_ORGANIZATION ( #207, #134 ) ;
#8 = EDGE_LOOP ( 'NONE', ( #29 ) ) ;
#9 = CC_DESIGN_APPROVAL ( #178, ( #194 ) ) ;
#10 = EDGE_LOOP ( 'NONE', ( #179 ) ) ;
#11 = DIRECTION ( 'NONE',  ( 2.010835757276588840E-30, -1.000000000000000000, 5.759262508167546889E-16 ) ) ;
#12 = ORIENTED_EDGE ( 'NONE', *, *, #18, .F. ) ;
#13 = DIRECTION ( 'NONE',  ( 0.0000000000000000000, 1.000000000000000000, 0.0000000000000000000 ) ) ;
#14 = DIRECTION ( 'NONE',  ( -3.491481338843133355E-15, -5.759262508167546889E-16, -1.000000000000000000 ) ) ;
#15 = AXIS2_PLACEMENT_3D ( 'NONE', #220, #183, #93 ) ;
#16 = AXIS2_PLACEMENT_3D ( 'NONE', #181, #36, #111 ) ;
#17 = FACE_OUTER_BOUND ( 'NONE', #85, .T. ) ;
#18 = EDGE_CURVE ( 'NONE', #53, #53, #202, .T. ) ;
#19 = DIRECTION ( 'NONE',  ( -3.491481338843133355E-15, -5.759262508167546889E-16, -1.000000000000000000 ) ) ;
#20 = PLANE ( 'NONE',  #16 ) ;
#21 = PERSON_AND_ORGANIZATION ( #207, #134 ) ;
#22 = PERSON_AND_ORGANIZATION_ROLE ( 'design_owner' ) ;
#23 = AXIS2_PLACEMENT_3D ( 'NONE', #203, #109, #166 ) ;
#24 = APPROVAL_DATE_TIME ( #192, #43 ) ;
#25 = CC_DESIGN_DATE_AND_TIME_ASSIGNMENT ( #66, #165, ( #194 ) ) ;
#26 = ADVANCED_FACE ( 'NONE', ( #47 ), #122, .T. ) ;
#27 = CALENDAR_DATE ( 2021, 26, 11 ) ;
#28 = ORIENTED_EDGE ( 'NONE', *, *, #31, .T. ) ;
#29 = ORIENTED_EDGE ( 'NONE', *, *, #240, .F. ) ;
#30 = EDGE_LOOP ( 'NONE', ( #199 ) ) ;
#31 = EDGE_CURVE ( 'NONE', #222, #222, #108, .T. ) ;
#32 = PRODUCT ( '321277', '321277', '', ( #1 ) ) ;
#33 = FACE_BOUND ( 'NONE', #10, .T. ) ;
#34 = PLANE ( 'NONE',  #15 ) ;
#35 = CC_DESIGN_SECURITY_CLASSIFICATION ( #194, ( #114 ) ) ;
#36 = DIRECTION ( 'NONE',  ( 3.491481338843133355E-15, -1.049697256412017316E-16, 1.000000000000000000 ) ) ;
#37 = DIRECTION ( 'NONE',  ( 3.664998382197393967E-31, 1.000000000000000000, 1.049697256412017316E-16 ) ) ;
#38 = FACE_OUTER_BOUND ( 'NONE', #8, .T. ) ;
#39 = CIRCLE ( 'NONE', #214, 1.724662432702592563 ) ;
#40 = VERTEX_POINT ( 'NONE', #115 ) ;
#41 = CALENDAR_DATE ( 2021, 26, 11 ) ;
#42 = COORDINATED_UNIVERSAL_TIME_OFFSET ( 1, 0, .AHEAD. ) ;
#43 = APPROVAL ( #64, 'UNSPECIFIED' ) ;
#44 = APPROVAL_DATE_TIME ( #116, #178 ) ;
#45 = ORIENTED_EDGE ( 'NONE', *, *, #163, .F. ) ;
#46 = LOCAL_TIME ( 14, 2, 5.000000000000000000, #157 ) ;
#47 = FACE_OUTER_BOUND ( 'NONE', #123, .T. ) ;
#48 = EDGE_LOOP ( 'NONE', ( #28 ) ) ;
#49 = DIRECTION ( 'NONE',  ( -3.491481338843133355E-15, 1.049697256412017316E-16, -1.000000000000000000 ) ) ;
#50 = APPROVAL_STATUS ( 'not_yet_approved' ) ;
#51 = EDGE_CURVE ( 'NONE', #129, #129, #119, .T. ) ;
#52 = DIRECTION ( 'NONE',  ( 0.0000000000000000000, 1.000000000000000000, 0.0000000000000000000 ) ) ;
#53 = VERTEX_POINT ( 'NONE', #128 ) ;
#54 = AXIS2_PLACEMENT_3D ( 'NONE', #126, #146, #235 ) ;
#55 = CARTESIAN_POINT ( 'NONE',  ( 3.869445280877825814E-14, 1.499999999999991562, 11.08253175473057794 ) ) ;
#56 = DESIGN_CONTEXT ( 'detailed design', #228, 'design' ) ;
#57 = CYLINDRICAL_SURFACE ( 'NONE', #227, 1.499999999999995337 ) ;
#58 = AXIS2_PLACEMENT_3D ( 'NONE', #151, #239, #150 ) ;
#59 = CLOSED_SHELL ( 'NONE', ( #139, #149, #172, #174, #144 ) ) ;
#60 =( NAMED_UNIT ( * ) PLANE_ANGLE_UNIT ( ) SI_UNIT ( $, .RADIAN. ) );
#61 = CC_DESIGN_PERSON_AND_ORGANIZATION_ASSIGNMENT ( #99, #113, ( #114 ) ) ;
#62 = PERSON_AND_ORGANIZATION_ROLE ( 'creator' ) ;
#63 = SECURITY_CLASSIFICATION_LEVEL ( 'unclassified' ) ;
#64 = APPROVAL_STATUS ( 'not_yet_approved' ) ;
#65 = DIRECTION ( 'NONE',  ( -3.297472349940705886E-30, 1.000000000000000000, -9.281559529035923009E-16 ) ) ;
#66 = DATE_AND_TIME ( #27, #143 ) ;
#67 = ORIENTED_EDGE ( 'NONE', *, *, #18, .T. ) ;
#68 = DIRECTION ( 'NONE',  ( -3.491481338843133355E-15, 1.049697256412017316E-16, -1.000000000000000000 ) ) ;
#69 = CC_DESIGN_DATE_AND_TIME_ASSIGNMENT ( #211, #136, ( #127 ) ) ;
#70 = EDGE_LOOP ( 'NONE', ( #87 ) ) ;
#71 = CONICAL_SURFACE ( 'NONE', #175, 1.724662432702592563, 0.5235987755982970393 ) ;
#72 = CARTESIAN_POINT ( 'NONE',  ( 2.433562493173664138E-13, -7.316389877191761450E-15, 69.70000000000001705 ) ) ;
#73 = EDGE_CURVE ( 'NONE', #40, #40, #232, .T. ) ;
#74 = AXIS2_PLACEMENT_3D ( 'NONE', #241, #14, #153 ) ;
#75 = DIRECTION ( 'NONE',  ( -3.491481338843133355E-15, 1.049697256412017316E-16, -1.000000000000000000 ) ) ;
#76 = FACE_OUTER_BOUND ( 'NONE', #216, .T. ) ;
#77 = ADVANCED_BREP_SHAPE_REPRESENTATION ( '321277', ( #80, #234, #101 ), #84 ) ;
#78 = DIRECTION ( 'NONE',  ( -3.491481338843133355E-15, 1.049697256412017316E-16, -1.000000000000000000 ) ) ;
#79 = CARTESIAN_POINT ( 'NONE',  ( 3.278739306271686435E-30, 5.408340623387813821E-31, 9.390682601666324798E-16 ) ) ;
#80 = MANIFOLD_SOLID_BREP ( 'Corps-Déplacer/Copier1[1]', #59 ) ;
#81 = CALENDAR_DATE ( 2021, 26, 11 ) ;
#82 = APPLICATION_PROTOCOL_DEFINITION ( 'international standard', 'config_control_design', 1994, #103 ) ;
#83 = CARTESIAN_POINT ( 'NONE',  ( 3.646295369500542965E-14, 1.868999999999998662, 10.44340500673764360 ) ) ;
#84 =( GEOMETRIC_REPRESENTATION_CONTEXT ( 3 ) GLOBAL_UNCERTAINTY_ASSIGNED_CONTEXT ( ( #152 ) ) GLOBAL_UNIT_ASSIGNED_CONTEXT ( ( #132, #60, #135 ) ) REPRESENTATION_CONTEXT ( 'NONE', 'WORKASPACE' ) );
#85 = EDGE_LOOP ( 'NONE', ( #197 ) ) ;
#86 = ORIENTED_EDGE ( 'NONE', *, *, #31, .F. ) ;
#87 = ORIENTED_EDGE ( 'NONE', *, *, #51, .F. ) ;
#88 = LOCAL_TIME ( 14, 2, 5.000000000000000000, #158 ) ;
#89 = ADVANCED_FACE ( 'NONE', ( #186, #200 ), #71, .T. ) ;
#90 = FACE_OUTER_BOUND ( 'NONE', #217, .T. ) ;
#91 = APPROVAL_PERSON_ORGANIZATION ( #124, #178, #140 ) ;
#92 = DIRECTION ( 'NONE',  ( 2.010835757276588840E-30, -1.000000000000000000, 5.759262508167546889E-16 ) ) ;
#93 = DIRECTION ( 'NONE',  ( -2.010835757276588840E-30, 1.000000000000000000, -5.759262508167546889E-16 ) ) ;
#94 = FACE_OUTER_BOUND ( 'NONE', #233, .T. ) ;
#95 = FACE_OUTER_BOUND ( 'NONE', #30, .T. ) ;
#96 = PERSON_AND_ORGANIZATION ( #207, #134 ) ;
#97 = CARTESIAN_POINT ( 'NONE',  ( 2.433562493173664138E-13, 1.499999999999990230, 69.70000000000001705 ) ) ;
#98 = AXIS2_PLACEMENT_3D ( 'NONE', #72, #125, #204 ) ;
#99 = PERSON_AND_ORGANIZATION ( #207, #134 ) ;
#100 = DIRECTION ( 'NONE',  ( 0.0000000000000000000, 0.0000000000000000000, 1.000000000000000000 ) ) ;
#101 = AXIS2_PLACEMENT_3D ( 'NONE', #170, #100, #188 ) ;
#102 = EDGE_LOOP ( 'NONE', ( #118 ) ) ;
#103 = APPLICATION_CONTEXT ( 'configuration controlled 3d designs of mechanical parts and assemblies' ) ;
#104 = DIRECTION ( 'NONE',  ( 3.491481338843133355E-15, 5.759262508167546889E-16, 1.000000000000000000 ) ) ;
#105 = ORIENTED_EDGE ( 'NONE', *, *, #73, .T. ) ;
#106 = CARTESIAN_POINT ( 'NONE',  ( 3.646295369500543596E-14, 6.014631091291336387E-15, 10.44340500673764538 ) ) ;
#107 = CC_DESIGN_PERSON_AND_ORGANIZATION_ASSIGNMENT ( #156, #62, ( #127 ) ) ;
#108 = CIRCLE ( 'NONE', #142, 1.499999999999992673 ) ;
#109 = DIRECTION ( 'NONE',  ( -3.491481338843133355E-15, 1.049697256412017316E-16, -1.000000000000000000 ) ) ;
#110 = CONICAL_SURFACE ( 'NONE', #208, 1.499999999999997558, 0.7853981633974573828 ) ;
#111 = DIRECTION ( 'NONE',  ( -3.664998382197393967E-31, -1.000000000000000000, -1.049697256412017316E-16 ) ) ;
#112 = PLANE ( 'NONE',  #23 ) ;
#113 = PERSON_AND_ORGANIZATION_ROLE ( 'creator' ) ;
#114 = PRODUCT_DEFINITION_FORMATION_WITH_SPECIFIED_SOURCE ( 'ANY', '', #32, .NOT_KNOWN. ) ;
#115 = CARTESIAN_POINT ( 'NONE',  ( 8.728703347107831416E-16, 1.868999999999998662, 0.2499999999999999445 ) ) ;
#116 = DATE_AND_TIME ( #212, #182 ) ;
#117 = COORDINATED_UNIVERSAL_TIME_OFFSET ( 1, 0, .AHEAD. ) ;
#118 = ORIENTED_EDGE ( 'NONE', *, *, #73, .F. ) ;
#119 = CIRCLE ( 'NONE', #98, 1.499999999999997558 ) ;
#120 = COORDINATED_UNIVERSAL_TIME_OFFSET ( 1, 0, .AHEAD. ) ;
#121 = CC_DESIGN_APPROVAL ( #6, ( #127 ) ) ;
#122 = PLANE ( 'NONE',  #133 ) ;
#123 = EDGE_LOOP ( 'NONE', ( #12 ) ) ;
#124 = PERSON_AND_ORGANIZATION ( #207, #134 ) ;
#125 = DIRECTION ( 'NONE',  ( -3.491481338843133355E-15, 1.049697256412017316E-16, -1.000000000000000000 ) ) ;
#126 = CARTESIAN_POINT ( 'NONE',  ( 0.0000000000000000000, 0.0000000000000000000, 0.0000000000000000000 ) ) ;
#127 = PRODUCT_DEFINITION ( 'UNKNOWN', '', #114, #56 ) ;
#128 = CARTESIAN_POINT ( 'NONE',  ( 3.646295369500542965E-14, 1.868999999999998662, 10.44340500673764360 ) ) ;
#129 = VERTEX_POINT ( 'NONE', #97 ) ;
#130 = FACE_OUTER_BOUND ( 'NONE', #213, .T. ) ;
#131 = CC_DESIGN_PERSON_AND_ORGANIZATION_ASSIGNMENT ( #5, #22, ( #32 ) ) ;
#132 =( LENGTH_UNIT ( ) NAMED_UNIT ( * ) SI_UNIT ( .MILLI., .METRE. ) );
#133 = AXIS2_PLACEMENT_3D ( 'NONE', #195, #104, #11 ) ;
#134 = ORGANIZATION ( 'UNSPECIFIED', 'UNSPECIFIED', '' ) ;
#135 =( NAMED_UNIT ( * ) SI_UNIT ( $, .STERADIAN. ) SOLID_ANGLE_UNIT ( ) );
#136 = DATE_TIME_ROLE ( 'creation_date' ) ;
#137 = CARTESIAN_POINT ( 'NONE',  ( 2.444036937190193601E-13, 1.199999999999990186, 70.00000000000000000 ) ) ;
#138 = ORIENTED_EDGE ( 'NONE', *, *, #51, .T. ) ;
#139 = ADVANCED_FACE ( 'NONE', ( #94 ), #20, .T. ) ;
#140 = APPROVAL_ROLE ( '' ) ;
#141 = EDGE_LOOP ( 'NONE', ( #45 ) ) ;
#142 = AXIS2_PLACEMENT_3D ( 'NONE', #161, #68, #177 ) ;
#143 = LOCAL_TIME ( 14, 2, 5.000000000000000000, #120 ) ;
#144 = ADVANCED_FACE ( 'NONE', ( #95 ), #112, .T. ) ;
#145 = PERSON_AND_ORGANIZATION_ROLE ( 'classification_officer' ) ;
#146 = DIRECTION ( 'NONE',  ( -3.491481338843133355E-15, -5.759262508167546889E-16, -1.000000000000000000 ) ) ;
#147 = FACE_BOUND ( 'NONE', #48, .T. ) ;
#148 = SHAPE_DEFINITION_REPRESENTATION ( #196, #77 ) ;
#149 = ADVANCED_FACE ( 'NONE', ( #33, #238 ), #110, .T. ) ;
#150 = DIRECTION ( 'NONE',  ( 0.0000000000000000000, 1.000000000000000000, 0.0000000000000000000 ) ) ;
#151 = CARTESIAN_POINT ( 'NONE',  ( 3.646295369500542965E-14, -1.096241358317202896E-15, 10.44340500673764360 ) ) ;
#152 = UNCERTAINTY_MEASURE_WITH_UNIT (LENGTH_MEASURE( 1.000000000000000082E-05 ), #132, 'distance_accuracy_value', 'NONE');
#153 = DIRECTION ( 'NONE',  ( -2.060920218712934522E-30, 1.000000000000000000, -5.800974705647433145E-16 ) ) ;
#154 = VERTEX_POINT ( 'NONE', #83 ) ;
#155 = VERTEX_POINT ( 'NONE', #137 ) ;
#156 = PERSON_AND_ORGANIZATION ( #207, #134 ) ;
#157 = COORDINATED_UNIVERSAL_TIME_OFFSET ( 1, 0, .AHEAD. ) ;
#158 = COORDINATED_UNIVERSAL_TIME_OFFSET ( 1, 0, .AHEAD. ) ;
#159 = EDGE_LOOP ( 'NONE', ( #105 ) ) ;
#160 = DIRECTION ( 'NONE',  ( -3.491481338843133355E-15, -5.759262508167546889E-16, -1.000000000000000000 ) ) ;
#161 = CARTESIAN_POINT ( 'NONE',  ( 3.869445280877825814E-14, -1.163330317703974832E-15, 11.08253175473057794 ) ) ;
#162 = AXIS2_PLACEMENT_3D ( 'NONE', #219, #78, #52 ) ;
#163 = EDGE_CURVE ( 'NONE', #243, #243, #39, .T. ) ;
#164 = CYLINDRICAL_SURFACE ( 'NONE', #54, 1.868999999999995776 ) ;
#165 = DATE_TIME_ROLE ( 'classification_date' ) ;
#166 = DIRECTION ( 'NONE',  ( 3.664998382197393967E-31, 1.000000000000000000, 1.049697256412017316E-16 ) ) ;
#167 = APPROVAL_PERSON_ORGANIZATION ( #7, #6, #171 ) ;
#168 = DIRECTION ( 'NONE',  ( 0.0000000000000000000, 1.000000000000000000, 0.0000000000000000000 ) ) ;
#169 = CARTESIAN_POINT ( 'NONE',  ( 0.0000000000000000000, 0.0000000000000000000, 0.0000000000000000000 ) ) ;
#170 = CARTESIAN_POINT ( 'NONE',  ( 0.0000000000000000000, 0.0000000000000000000, 0.0000000000000000000 ) ) ;
#171 = APPROVAL_ROLE ( '' ) ;
#172 = ADVANCED_FACE ( 'NONE', ( #90, #76 ), #57, .T. ) ;
#173 = PERSON_AND_ORGANIZATION_ROLE ( 'design_supplier' ) ;
#174 = ADVANCED_FACE ( 'NONE', ( #147, #38 ), #237, .T. ) ;
#175 = AXIS2_PLACEMENT_3D ( 'NONE', #180, #201, #92 ) ;
#176 = AXIS2_PLACEMENT_3D ( 'NONE', #106, #160, #65 ) ;
#177 = DIRECTION ( 'NONE',  ( 0.0000000000000000000, 1.000000000000000000, 0.0000000000000000000 ) ) ;
#178 = APPROVAL ( #50, 'UNSPECIFIED' ) ;
#179 = ORIENTED_EDGE ( 'NONE', *, *, #225, .T. ) ;
#180 = CARTESIAN_POINT ( 'NONE',  ( 3.278739306271686435E-30, 5.408340623387813821E-31, 9.390682601666324798E-16 ) ) ;
#181 = CARTESIAN_POINT ( 'NONE',  ( 2.444036937190193601E-13, -7.347880794884121511E-15, 70.00000000000000000 ) ) ;
#182 = LOCAL_TIME ( 14, 2, 5.000000000000000000, #117 ) ;
#183 = DIRECTION ( 'NONE',  ( -3.491481338843133355E-15, -5.759262508167546889E-16, -1.000000000000000000 ) ) ;
#184 = LOCAL_TIME ( 14, 2, 5.000000000000000000, #42 ) ;
#185 = DIRECTION ( 'NONE',  ( -3.491481338843133355E-15, 1.049697256412017316E-16, -1.000000000000000000 ) ) ;
#186 = FACE_OUTER_BOUND ( 'NONE', #159, .T. ) ;
#187 = APPROVAL_STATUS ( 'not_yet_approved' ) ;
#188 = DIRECTION ( 'NONE',  ( 1.000000000000000000, 0.0000000000000000000, 0.0000000000000000000 ) ) ;
#189 = CC_DESIGN_PERSON_AND_ORGANIZATION_ASSIGNMENT ( #21, #173, ( #114 ) ) ;
#190 = APPLICATION_PROTOCOL_DEFINITION ( 'international standard', 'config_control_design', 1994, #228 ) ;
#191 = CIRCLE ( 'NONE', #236, 1.199999999999997513 ) ;
#192 = DATE_AND_TIME ( #41, #184 ) ;
#193 = ADVANCED_FACE ( 'NONE', ( #130, #206 ), #164, .T. ) ;
#194 = SECURITY_CLASSIFICATION ( '', '', #63 ) ;
#195 = CARTESIAN_POINT ( 'NONE',  ( 3.646295369500542334E-14, 6.014631091291334020E-15, 10.44340500673764183 ) ) ;
#196 = PRODUCT_DEFINITION_SHAPE ( 'NONE', 'NONE',  #127 ) ;
#197 = ORIENTED_EDGE ( 'NONE', *, *, #163, .T. ) ;
#198 = CC_DESIGN_PERSON_AND_ORGANIZATION_ASSIGNMENT ( #96, #145, ( #194 ) ) ;
#199 = ORIENTED_EDGE ( 'NONE', *, *, #240, .T. ) ;
#200 = FACE_BOUND ( 'NONE', #141, .T. ) ;
#201 = DIRECTION ( 'NONE',  ( 3.491481338843133355E-15, 5.759262508167546889E-16, 1.000000000000000000 ) ) ;
#202 = CIRCLE ( 'NONE', #176, 1.868999999999992667 ) ;
#203 = CARTESIAN_POINT ( 'NONE',  ( 3.646295369500542334E-14, 1.868999999999998662, 10.44340500673764183 ) ) ;
#204 = DIRECTION ( 'NONE',  ( 0.0000000000000000000, 1.000000000000000000, 0.0000000000000000000 ) ) ;
#205 = PRODUCT_RELATED_PRODUCT_CATEGORY ( 'detail', '', ( #32 ) ) ;
#206 = FACE_OUTER_BOUND ( 'NONE', #102, .T. ) ;
#207 = PERSON ( 'UNSPECIFIED', 'UNSPECIFIED', 'UNSPECIFIED', ('UNSPECIFIED'), ('UNSPECIFIED'), ('UNSPECIFIED') ) ;
#208 = AXIS2_PLACEMENT_3D ( 'NONE', #223, #185, #13 ) ;
#209 = APPROVAL_ROLE ( '' ) ;
#210 = DATE_AND_TIME ( #81, #88 ) ;
#211 = DATE_AND_TIME ( #229, #46 ) ;
#212 = CALENDAR_DATE ( 2021, 26, 11 ) ;
#213 = EDGE_LOOP ( 'NONE', ( #67 ) ) ;
#214 = AXIS2_PLACEMENT_3D ( 'NONE', #79, #19, #242 ) ;
#215 = ADVANCED_FACE ( 'NONE', ( #17 ), #34, .T. ) ;
#216 = EDGE_LOOP ( 'NONE', ( #86 ) ) ;
#217 = EDGE_LOOP ( 'NONE', ( #138 ) ) ;
#218 = CARTESIAN_POINT ( 'NONE',  ( 2.444036937190193601E-13, -7.347880794884121511E-15, 70.00000000000000000 ) ) ;
#219 = CARTESIAN_POINT ( 'NONE',  ( 3.646295369500542965E-14, -1.096241358317202896E-15, 10.44340500673764360 ) ) ;
#220 = CARTESIAN_POINT ( 'NONE',  ( -1.828643235774159331E-30, 1.724662432702592563, -5.237442387075914616E-16 ) ) ;
#221 = CIRCLE ( 'NONE', #58, 1.868999999999999773 ) ;
#222 = VERTEX_POINT ( 'NONE', #55 ) ;
#223 = CARTESIAN_POINT ( 'NONE',  ( 2.433562493173664138E-13, -7.316389877191761450E-15, 69.70000000000001705 ) ) ;
#224 = PERSON_AND_ORGANIZATION ( #207, #134 ) ;
#225 = EDGE_CURVE ( 'NONE', #155, #155, #191, .T. ) ;
#226 = CLOSED_SHELL ( 'NONE', ( #26, #193, #89, #215 ) ) ;
#227 = AXIS2_PLACEMENT_3D ( 'NONE', #169, #75, #37 ) ;
#228 = APPLICATION_CONTEXT ( 'configuration controlled 3d designs of mechanical parts and assemblies' ) ;
#229 = CALENDAR_DATE ( 2021, 26, 11 ) ;
#230 = APPROVAL_DATE_TIME ( #210, #6 ) ;
#231 = ORIENTED_EDGE ( 'NONE', *, *, #225, .F. ) ;
#232 = CIRCLE ( 'NONE', #74, 1.868999999999998440 ) ;
#233 = EDGE_LOOP ( 'NONE', ( #231 ) ) ;
#234 = MANIFOLD_SOLID_BREP ( 'Corps-Déplacer/Copier1[2]', #226 ) ;
#235 = DIRECTION ( 'NONE',  ( -2.010835757276588840E-30, 1.000000000000000000, -5.759262508167546889E-16 ) ) ;
#236 = AXIS2_PLACEMENT_3D ( 'NONE', #218, #49, #168 ) ;
#237 = CONICAL_SURFACE ( 'NONE', #162, 1.868999999999999773, 0.5235987755982940417 ) ;
#238 = FACE_OUTER_BOUND ( 'NONE', #70, .T. ) ;
#239 = DIRECTION ( 'NONE',  ( -3.491481338843133355E-15, 1.049697256412017316E-16, -1.000000000000000000 ) ) ;
#240 = EDGE_CURVE ( 'NONE', #154, #154, #221, .T. ) ;
#241 = CARTESIAN_POINT ( 'NONE',  ( 8.728703347107869873E-16, 1.439815627041892639E-16, 0.2500000000000010547 ) ) ;
#242 = DIRECTION ( 'NONE',  ( -2.010835757276588840E-30, 1.000000000000000000, -5.759262508167546889E-16 ) ) ;
#243 = VERTEX_POINT ( 'NONE', #3 ) ;
ENDSEC;
END-ISO-10303-21;
