ISO-10303-21;
HEADER;
FILE_DESCRIPTION (( 'STEP AP203' ),
    '1' );
FILE_NAME ('321276.step',
    '2021-11-26T13:02:04',
    ( '' ),
    ( '' ),
    'SwSTEP 2.0',
    'SolidWorks 2019',
    '' );
FILE_SCHEMA (( 'CONFIG_CONTROL_DESIGN' ));
ENDSEC;

DATA;
#1 = DIRECTION ( 'NONE',  ( -2.008461077710776607E-30, 1.000000000000000000, -5.752461155574326225E-16 ) ) ;
#2 = PLANE ( 'NONE',  #214 ) ;
#3 = DIRECTION ( 'NONE',  ( -3.491481338843133355E-15, -5.752461155574326225E-16, -1.000000000000000000 ) ) ;
#4 = ADVANCED_BREP_SHAPE_REPRESENTATION ( '321276', ( #73, #233, #173 ), #222 ) ;
#5 = FACE_OUTER_BOUND ( 'NONE', #151, .T. ) ;
#6 = VERTEX_POINT ( 'NONE', #108 ) ;
#7 = AXIS2_PLACEMENT_3D ( 'NONE', #175, #102, #137 ) ;
#8 = CC_DESIGN_APPROVAL ( #219, ( #47 ) ) ;
#9 = LOCAL_TIME ( 14, 2, 4.000000000000000000, #236 ) ;
#10 = APPLICATION_PROTOCOL_DEFINITION ( 'international standard', 'config_control_design', 1994, #118 ) ;
#11 = PERSON_AND_ORGANIZATION ( #71, #160 ) ;
#12 = CIRCLE ( 'NONE', #169, 1.499999999999992673 ) ;
#13 = PERSON_AND_ORGANIZATION_ROLE ( 'design_supplier' ) ;
#14 = EDGE_LOOP ( 'NONE', ( #112 ) ) ;
#15 = CC_DESIGN_DATE_AND_TIME_ASSIGNMENT ( #29, #93, ( #47 ) ) ;
#16 = AXIS2_PLACEMENT_3D ( 'NONE', #128, #45, #88 ) ;
#17 = DIRECTION ( 'NONE',  ( -3.306317501093980042E-30, 1.000000000000000000, -9.306456416184623762E-16 ) ) ;
#18 = CARTESIAN_POINT ( 'NONE',  ( 2.433562493173664138E-13, -7.316389877191761450E-15, 69.70000000000001705 ) ) ;
#19 = CARTESIAN_POINT ( 'NONE',  ( 2.444036937190193601E-13, -7.347880794884121511E-15, 70.00000000000000000 ) ) ;
#20 = PLANE ( 'NONE',  #95 ) ;
#21 = FACE_OUTER_BOUND ( 'NONE', #223, .T. ) ;
#22 = VERTEX_POINT ( 'NONE', #213 ) ;
#23 = APPROVAL_PERSON_ORGANIZATION ( #11, #219, #110 ) ;
#24 = COORDINATED_UNIVERSAL_TIME_OFFSET ( 1, 0, .AHEAD. ) ;
#25 = DATE_AND_TIME ( #63, #36 ) ;
#26 = VERTEX_POINT ( 'NONE', #199 ) ;
#27 = APPROVAL_STATUS ( 'not_yet_approved' ) ;
#28 = PRODUCT ( '321276', '321276', '', ( #129 ) ) ;
#29 = DATE_AND_TIME ( #221, #69 ) ;
#30 = ADVANCED_FACE ( 'NONE', ( #85, #154 ), #39, .T. ) ;
#31 = SHAPE_DEFINITION_REPRESENTATION ( #196, #4 ) ;
#32 = AXIS2_PLACEMENT_3D ( 'NONE', #119, #3, #121 ) ;
#33 = ORIENTED_EDGE ( 'NONE', *, *, #48, .T. ) ;
#34 = UNCERTAINTY_MEASURE_WITH_UNIT (LENGTH_MEASURE( 1.000000000000000082E-05 ), #127, 'distance_accuracy_value', 'NONE');
#35 = PERSON_AND_ORGANIZATION_ROLE ( 'creator' ) ;
#36 = LOCAL_TIME ( 14, 2, 4.000000000000000000, #24 ) ;
#37 = CARTESIAN_POINT ( 'NONE',  ( 3.649319081036820470E-14, 6.012509940813883143E-15, 10.45206526077548759 ) ) ;
#38 = FACE_OUTER_BOUND ( 'NONE', #157, .T. ) ;
#39 = CYLINDRICAL_SURFACE ( 'NONE', #86, 1.499999999999995337 ) ;
#40 = FACE_OUTER_BOUND ( 'NONE', #114, .T. ) ;
#41 = DIRECTION ( 'NONE',  ( 0.0000000000000000000, 1.000000000000000000, 0.0000000000000000000 ) ) ;
#42 = ADVANCED_FACE ( 'NONE', ( #117 ), #155, .T. ) ;
#43 = PERSON_AND_ORGANIZATION ( #71, #160 ) ;
#44 = FACE_BOUND ( 'NONE', #167, .T. ) ;
#45 = DIRECTION ( 'NONE',  ( 3.491481338843133355E-15, 5.752461155574326225E-16, 1.000000000000000000 ) ) ;
#46 = AXIS2_PLACEMENT_3D ( 'NONE', #140, #122, #83 ) ;
#47 = SECURITY_CLASSIFICATION ( '', '', #77 ) ;
#48 = EDGE_CURVE ( 'NONE', #145, #145, #220, .T. ) ;
#49 = DATE_AND_TIME ( #168, #235 ) ;
#50 = ORIENTED_EDGE ( 'NONE', *, *, #237, .T. ) ;
#51 = AXIS2_PLACEMENT_3D ( 'NONE', #143, #162, #216 ) ;
#52 = APPROVAL_STATUS ( 'not_yet_approved' ) ;
#53 = ORIENTED_EDGE ( 'NONE', *, *, #198, .T. ) ;
#54 = EDGE_LOOP ( 'NONE', ( #94 ) ) ;
#55 = CARTESIAN_POINT ( 'NONE',  ( 3.869445280877825814E-14, -1.163330317703974832E-15, 11.08253175473057794 ) ) ;
#56 = ORIENTED_EDGE ( 'NONE', *, *, #124, .F. ) ;
#57 = EDGE_CURVE ( 'NONE', #6, #6, #120, .T. ) ;
#58 = DIRECTION ( 'NONE',  ( -3.491481338843133355E-15, -5.752461155574326225E-16, -1.000000000000000000 ) ) ;
#59 = FACE_OUTER_BOUND ( 'NONE', #188, .T. ) ;
#60 = DIRECTION ( 'NONE',  ( -2.008461077710776958E-30, 1.000000000000000000, -5.752461155574325239E-16 ) ) ;
#61 = ADVANCED_FACE ( 'NONE', ( #21 ), #98, .T. ) ;
#62 = CC_DESIGN_SECURITY_CLASSIFICATION ( #47, ( #178 ) ) ;
#63 = CALENDAR_DATE ( 2021, 26, 11 ) ;
#64 = CIRCLE ( 'NONE', #7, 1.719662432702592891 ) ;
#65 = CC_DESIGN_PERSON_AND_ORGANIZATION_ASSIGNMENT ( #150, #113, ( #47 ) ) ;
#66 = CALENDAR_DATE ( 2021, 26, 11 ) ;
#67 = PERSON_AND_ORGANIZATION ( #71, #160 ) ;
#68 = APPROVAL_DATE_TIME ( #201, #219 ) ;
#69 = LOCAL_TIME ( 14, 2, 4.000000000000000000, #204 ) ;
#70 = EDGE_LOOP ( 'NONE', ( #72 ) ) ;
#71 = PERSON ( 'UNSPECIFIED', 'UNSPECIFIED', 'UNSPECIFIED', ('UNSPECIFIED'), ('UNSPECIFIED'), ('UNSPECIFIED') ) ;
#72 = ORIENTED_EDGE ( 'NONE', *, *, #208, .F. ) ;
#73 = MANIFOLD_SOLID_BREP ( 'Corps-Déplacer/Copier1[1]', #239 ) ;
#74 = ORIENTED_EDGE ( 'NONE', *, *, #237, .F. ) ;
#75 = AXIS2_PLACEMENT_3D ( 'NONE', #228, #192, #159 ) ;
#76 = CC_DESIGN_DATE_AND_TIME_ASSIGNMENT ( #87, #238, ( #92 ) ) ;
#77 = SECURITY_CLASSIFICATION_LEVEL ( 'unclassified' ) ;
#78 = ORIENTED_EDGE ( 'NONE', *, *, #57, .T. ) ;
#79 = DIRECTION ( 'NONE',  ( -3.491481338843133355E-15, 1.049697256412017316E-16, -1.000000000000000000 ) ) ;
#80 = DIRECTION ( 'NONE',  ( 3.664998382197393967E-31, 1.000000000000000000, 1.049697256412017316E-16 ) ) ;
#81 = PRODUCT_RELATED_PRODUCT_CATEGORY ( 'detail', '', ( #28 ) ) ;
#82 = AXIS2_PLACEMENT_3D ( 'NONE', #191, #190, #60 ) ;
#83 = DIRECTION ( 'NONE',  ( 0.0000000000000000000, 1.000000000000000000, 0.0000000000000000000 ) ) ;
#84 = DIRECTION ( 'NONE',  ( 2.008461077710776607E-30, -1.000000000000000000, 5.752461155574326225E-16 ) ) ;
#85 = FACE_OUTER_BOUND ( 'NONE', #170, .T. ) ;
#86 = AXIS2_PLACEMENT_3D ( 'NONE', #101, #194, #80 ) ;
#87 = DATE_AND_TIME ( #66, #9 ) ;
#88 = DIRECTION ( 'NONE',  ( 2.008461077710776257E-30, -1.000000000000000000, 5.752461155574326225E-16 ) ) ;
#89 = CARTESIAN_POINT ( 'NONE',  ( 2.444036937190193601E-13, 1.199999999999990186, 70.00000000000000000 ) ) ;
#90 = CONICAL_SURFACE ( 'NONE', #226, 1.499999999999997558, 0.7853981633974573828 ) ;
#91 = APPLICATION_PROTOCOL_DEFINITION ( 'international standard', 'config_control_design', 1994, #146 ) ;
#92 = PRODUCT_DEFINITION ( 'UNKNOWN', '', #178, #187 ) ;
#93 = DATE_TIME_ROLE ( 'classification_date' ) ;
#94 = ORIENTED_EDGE ( 'NONE', *, *, #198, .F. ) ;
#95 = AXIS2_PLACEMENT_3D ( 'NONE', #209, #139, #171 ) ;
#96 = EDGE_LOOP ( 'NONE', ( #33 ) ) ;
#97 = DIRECTION ( 'NONE',  ( 3.491481338843133355E-15, 5.752461155574326225E-16, 1.000000000000000000 ) ) ;
#98 = PLANE ( 'NONE',  #195 ) ;
#99 = CC_DESIGN_APPROVAL ( #215, ( #92 ) ) ;
#100 = DIRECTION ( 'NONE',  ( -3.491481338843133355E-15, 1.049697256412017316E-16, -1.000000000000000000 ) ) ;
#101 = CARTESIAN_POINT ( 'NONE',  ( 0.0000000000000000000, 0.0000000000000000000, 0.0000000000000000000 ) ) ;
#102 = DIRECTION ( 'NONE',  ( -3.491481338843133355E-15, -5.752461155574326225E-16, -1.000000000000000000 ) ) ;
#103 = VERTEX_POINT ( 'NONE', #89 ) ;
#104 = PERSON_AND_ORGANIZATION ( #71, #160 ) ;
#105 = APPROVAL_DATE_TIME ( #25, #215 ) ;
#106 = VERTEX_POINT ( 'NONE', #183 ) ;
#107 = CC_DESIGN_PERSON_AND_ORGANIZATION_ASSIGNMENT ( #148, #13, ( #178 ) ) ;
#108 = CARTESIAN_POINT ( 'NONE',  ( 3.649319081036819838E-14, 1.863999999999998991, 10.45206526077548581 ) ) ;
#109 = ORIENTED_EDGE ( 'NONE', *, *, #240, .T. ) ;
#110 = APPROVAL_ROLE ( '' ) ;
#111 = CIRCLE ( 'NONE', #144, 1.863999999999992774 ) ;
#112 = ORIENTED_EDGE ( 'NONE', *, *, #208, .T. ) ;
#113 = PERSON_AND_ORGANIZATION_ROLE ( 'classification_officer' ) ;
#114 = EDGE_LOOP ( 'NONE', ( #50 ) ) ;
#115 = ORIENTED_EDGE ( 'NONE', *, *, #57, .F. ) ;
#116 = DIRECTION ( 'NONE',  ( -3.491481338843133355E-15, -5.752461155574326225E-16, -1.000000000000000000 ) ) ;
#117 = FACE_OUTER_BOUND ( 'NONE', #205, .T. ) ;
#118 = APPLICATION_CONTEXT ( 'configuration controlled 3d designs of mechanical parts and assemblies' ) ;
#119 = CARTESIAN_POINT ( 'NONE',  ( 8.728703347107869873E-16, 1.438115288893587473E-16, 0.2500000000000010547 ) ) ;
#120 = CIRCLE ( 'NONE', #75, 1.863999999999999879 ) ;
#121 = DIRECTION ( 'NONE',  ( -1.963126016274544300E-30, 1.000000000000000000, -5.816535260115370622E-16 ) ) ;
#122 = DIRECTION ( 'NONE',  ( -3.491481338843133355E-15, 1.049697256412017316E-16, -1.000000000000000000 ) ) ;
#123 = VERTEX_POINT ( 'NONE', #126 ) ;
#124 = EDGE_CURVE ( 'NONE', #26, #26, #64, .T. ) ;
#125 = CIRCLE ( 'NONE', #166, 1.499999999999997558 ) ;
#126 = CARTESIAN_POINT ( 'NONE',  ( 3.649319081036819838E-14, 1.863999999999998991, 10.45206526077548581 ) ) ;
#127 =( LENGTH_UNIT ( ) NAMED_UNIT ( * ) SI_UNIT ( .MILLI., .METRE. ) );
#128 = CARTESIAN_POINT ( 'NONE',  ( 3.264601480246269214E-30, 5.378660625970725083E-31, 9.350190258579362620E-16 ) ) ;
#129 = MECHANICAL_CONTEXT ( 'NONE', #118, 'mechanical' ) ;
#130 = CLOSED_SHELL ( 'NONE', ( #42, #176, #243, #142 ) ) ;
#131 = ORIENTED_EDGE ( 'NONE', *, *, #124, .T. ) ;
#132 = CALENDAR_DATE ( 2021, 26, 11 ) ;
#133 = CC_DESIGN_APPROVAL ( #193, ( #178 ) ) ;
#134 = ORIENTED_EDGE ( 'NONE', *, *, #48, .F. ) ;
#135 = ADVANCED_FACE ( 'NONE', ( #59 ), #20, .T. ) ;
#136 = DIRECTION ( 'NONE',  ( 0.0000000000000000000, 1.000000000000000000, 0.0000000000000000000 ) ) ;
#137 = DIRECTION ( 'NONE',  ( -2.008461077710776607E-30, 1.000000000000000000, -5.752461155574326225E-16 ) ) ;
#138 = CYLINDRICAL_SURFACE ( 'NONE', #82, 1.863999999999995882 ) ;
#139 = DIRECTION ( 'NONE',  ( -3.491481338843133355E-15, 1.049697256412017316E-16, -1.000000000000000000 ) ) ;
#140 = CARTESIAN_POINT ( 'NONE',  ( 3.649319081036819838E-14, -1.097150422807538422E-15, 10.45206526077548581 ) ) ;
#141 = FACE_OUTER_BOUND ( 'NONE', #96, .T. ) ;
#142 = ADVANCED_FACE ( 'NONE', ( #38 ), #2, .T. ) ;
#143 = CARTESIAN_POINT ( 'NONE',  ( 2.444036937190193601E-13, -7.347880794884121511E-15, 70.00000000000000000 ) ) ;
#144 = AXIS2_PLACEMENT_3D ( 'NONE', #37, #116, #17 ) ;
#145 = VERTEX_POINT ( 'NONE', #181 ) ;
#146 = APPLICATION_CONTEXT ( 'configuration controlled 3d designs of mechanical parts and assemblies' ) ;
#147 = DIRECTION ( 'NONE',  ( 1.000000000000000000, 0.0000000000000000000, 0.0000000000000000000 ) ) ;
#148 = PERSON_AND_ORGANIZATION ( #71, #160 ) ;
#149 = ADVANCED_FACE ( 'NONE', ( #230, #177 ), #90, .T. ) ;
#150 = PERSON_AND_ORGANIZATION ( #71, #160 ) ;
#151 = EDGE_LOOP ( 'NONE', ( #134 ) ) ;
#152 = APPROVAL_PERSON_ORGANIZATION ( #67, #193, #165 ) ;
#153 = EDGE_LOOP ( 'NONE', ( #115 ) ) ;
#154 = FACE_OUTER_BOUND ( 'NONE', #70, .T. ) ;
#155 = PLANE ( 'NONE',  #206 ) ;
#156 = CONICAL_SURFACE ( 'NONE', #46, 1.863999999999999879, 0.5235987755982935976 ) ;
#157 = EDGE_LOOP ( 'NONE', ( #131 ) ) ;
#158 = CARTESIAN_POINT ( 'NONE',  ( 3.649319081036820470E-14, 6.012509940813883932E-15, 10.45206526077548759 ) ) ;
#159 = DIRECTION ( 'NONE',  ( 0.0000000000000000000, 1.000000000000000000, 0.0000000000000000000 ) ) ;
#160 = ORGANIZATION ( 'UNSPECIFIED', 'UNSPECIFIED', '' ) ;
#161 = CARTESIAN_POINT ( 'NONE',  ( 0.0000000000000000000, 0.0000000000000000000, 0.0000000000000000000 ) ) ;
#162 = DIRECTION ( 'NONE',  ( -3.491481338843133355E-15, 1.049697256412017316E-16, -1.000000000000000000 ) ) ;
#163 = LOCAL_TIME ( 14, 2, 4.000000000000000000, #202 ) ;
#164 = PERSON_AND_ORGANIZATION_ROLE ( 'creator' ) ;
#165 = APPROVAL_ROLE ( '' ) ;
#166 = AXIS2_PLACEMENT_3D ( 'NONE', #211, #79, #225 ) ;
#167 = EDGE_LOOP ( 'NONE', ( #56 ) ) ;
#168 = CALENDAR_DATE ( 2021, 26, 11 ) ;
#169 = AXIS2_PLACEMENT_3D ( 'NONE', #55, #189, #136 ) ;
#170 = EDGE_LOOP ( 'NONE', ( #53 ) ) ;
#171 = DIRECTION ( 'NONE',  ( 3.664998382197393967E-31, 1.000000000000000000, 1.049697256412017316E-16 ) ) ;
#172 = FACE_OUTER_BOUND ( 'NONE', #153, .T. ) ;
#173 = AXIS2_PLACEMENT_3D ( 'NONE', #161, #217, #147 ) ;
#174 = FACE_BOUND ( 'NONE', #14, .T. ) ;
#175 = CARTESIAN_POINT ( 'NONE',  ( 3.264601480246269214E-30, 5.378660625970725083E-31, 9.350190258579362620E-16 ) ) ;
#176 = ADVANCED_FACE ( 'NONE', ( #40, #5 ), #138, .T. ) ;
#177 = FACE_OUTER_BOUND ( 'NONE', #54, .T. ) ;
#178 = PRODUCT_DEFINITION_FORMATION_WITH_SPECIFIED_SOURCE ( 'ANY', '', #28, .NOT_KNOWN. ) ;
#179 =( NAMED_UNIT ( * ) SI_UNIT ( $, .STERADIAN. ) SOLID_ANGLE_UNIT ( ) );
#180 =( NAMED_UNIT ( * ) PLANE_ANGLE_UNIT ( ) SI_UNIT ( $, .RADIAN. ) );
#181 = CARTESIAN_POINT ( 'NONE',  ( 8.728703347107833388E-16, 1.863999999999998991, 0.2499999999999999445 ) ) ;
#182 = ADVANCED_FACE ( 'NONE', ( #174, #172 ), #156, .T. ) ;
#183 = CARTESIAN_POINT ( 'NONE',  ( 2.433562493173664138E-13, 1.499999999999990230, 69.70000000000001705 ) ) ;
#184 = PERSON_AND_ORGANIZATION ( #71, #160 ) ;
#185 = APPROVAL_DATE_TIME ( #49, #193 ) ;
#186 = EDGE_LOOP ( 'NONE', ( #109 ) ) ;
#187 = DESIGN_CONTEXT ( 'detailed design', #146, 'design' ) ;
#188 = EDGE_LOOP ( 'NONE', ( #78 ) ) ;
#189 = DIRECTION ( 'NONE',  ( -3.491481338843133355E-15, 1.049697256412017316E-16, -1.000000000000000000 ) ) ;
#190 = DIRECTION ( 'NONE',  ( -3.491481338843133355E-15, -5.752461155574326225E-16, -1.000000000000000000 ) ) ;
#191 = CARTESIAN_POINT ( 'NONE',  ( 0.0000000000000000000, 0.0000000000000000000, 0.0000000000000000000 ) ) ;
#192 = DIRECTION ( 'NONE',  ( -3.491481338843133355E-15, 1.049697256412017316E-16, -1.000000000000000000 ) ) ;
#193 = APPROVAL ( #218, 'UNSPECIFIED' ) ;
#194 = DIRECTION ( 'NONE',  ( -3.491481338843133355E-15, 1.049697256412017316E-16, -1.000000000000000000 ) ) ;
#195 = AXIS2_PLACEMENT_3D ( 'NONE', #19, #207, #210 ) ;
#196 = PRODUCT_DEFINITION_SHAPE ( 'NONE', 'NONE',  #92 ) ;
#197 = PERSON_AND_ORGANIZATION_ROLE ( 'design_owner' ) ;
#198 = EDGE_CURVE ( 'NONE', #106, #106, #125, .T. ) ;
#199 = CARTESIAN_POINT ( 'NONE',  ( -1.892735826383161356E-31, 1.719662432702592891, -5.421010862427522170E-17 ) ) ;
#200 = CC_DESIGN_PERSON_AND_ORGANIZATION_ASSIGNMENT ( #104, #164, ( #92 ) ) ;
#201 = DATE_AND_TIME ( #132, #163 ) ;
#202 = COORDINATED_UNIVERSAL_TIME_OFFSET ( 1, 0, .AHEAD. ) ;
#203 = APPROVAL_PERSON_ORGANIZATION ( #43, #215, #232 ) ;
#204 = COORDINATED_UNIVERSAL_TIME_OFFSET ( 1, 0, .AHEAD. ) ;
#205 = EDGE_LOOP ( 'NONE', ( #74 ) ) ;
#206 = AXIS2_PLACEMENT_3D ( 'NONE', #158, #97, #84 ) ;
#207 = DIRECTION ( 'NONE',  ( 3.491481338843133355E-15, -1.049697256412017316E-16, 1.000000000000000000 ) ) ;
#208 = EDGE_CURVE ( 'NONE', #22, #22, #12, .T. ) ;
#209 = CARTESIAN_POINT ( 'NONE',  ( 3.649319081036820470E-14, 1.863999999999998991, 10.45206526077548759 ) ) ;
#210 = DIRECTION ( 'NONE',  ( -3.664998382197393967E-31, -1.000000000000000000, -1.049697256412017316E-16 ) ) ;
#211 = CARTESIAN_POINT ( 'NONE',  ( 2.433562493173664138E-13, -7.316389877191761450E-15, 69.70000000000001705 ) ) ;
#212 = CC_DESIGN_PERSON_AND_ORGANIZATION_ASSIGNMENT ( #234, #197, ( #28 ) ) ;
#213 = CARTESIAN_POINT ( 'NONE',  ( 3.869445280877825814E-14, 1.499999999999991562, 11.08253175473057794 ) ) ;
#214 = AXIS2_PLACEMENT_3D ( 'NONE', #227, #58, #1 ) ;
#215 = APPROVAL ( #27, 'UNSPECIFIED' ) ;
#216 = DIRECTION ( 'NONE',  ( 0.0000000000000000000, 1.000000000000000000, 0.0000000000000000000 ) ) ;
#217 = DIRECTION ( 'NONE',  ( 0.0000000000000000000, 0.0000000000000000000, 1.000000000000000000 ) ) ;
#218 = APPROVAL_STATUS ( 'not_yet_approved' ) ;
#219 = APPROVAL ( #52, 'UNSPECIFIED' ) ;
#220 = CIRCLE ( 'NONE', #32, 1.863999999999998769 ) ;
#221 = CALENDAR_DATE ( 2021, 26, 11 ) ;
#222 =( GEOMETRIC_REPRESENTATION_CONTEXT ( 3 ) GLOBAL_UNCERTAINTY_ASSIGNED_CONTEXT ( ( #34 ) ) GLOBAL_UNIT_ASSIGNED_CONTEXT ( ( #127, #180, #179 ) ) REPRESENTATION_CONTEXT ( 'NONE', 'WORKASPACE' ) );
#223 = EDGE_LOOP ( 'NONE', ( #224 ) ) ;
#224 = ORIENTED_EDGE ( 'NONE', *, *, #240, .F. ) ;
#225 = DIRECTION ( 'NONE',  ( 0.0000000000000000000, 1.000000000000000000, 0.0000000000000000000 ) ) ;
#226 = AXIS2_PLACEMENT_3D ( 'NONE', #18, #100, #41 ) ;
#227 = CARTESIAN_POINT ( 'NONE',  ( -1.821574322761450721E-30, 1.719662432702592891, -5.217196215532433527E-16 ) ) ;
#228 = CARTESIAN_POINT ( 'NONE',  ( 3.649319081036819838E-14, -1.097150422807538422E-15, 10.45206526077548581 ) ) ;
#229 = CC_DESIGN_PERSON_AND_ORGANIZATION_ASSIGNMENT ( #184, #35, ( #178 ) ) ;
#230 = FACE_BOUND ( 'NONE', #186, .T. ) ;
#231 = CONICAL_SURFACE ( 'NONE', #16, 1.719662432702592891, 0.5235987755982970393 ) ;
#232 = APPROVAL_ROLE ( '' ) ;
#233 = MANIFOLD_SOLID_BREP ( 'Corps-Déplacer/Copier1[2]', #130 ) ;
#234 = PERSON_AND_ORGANIZATION ( #71, #160 ) ;
#235 = LOCAL_TIME ( 14, 2, 4.000000000000000000, #241 ) ;
#236 = COORDINATED_UNIVERSAL_TIME_OFFSET ( 1, 0, .AHEAD. ) ;
#237 = EDGE_CURVE ( 'NONE', #123, #123, #111, .T. ) ;
#238 = DATE_TIME_ROLE ( 'creation_date' ) ;
#239 = CLOSED_SHELL ( 'NONE', ( #61, #149, #30, #182, #135 ) ) ;
#240 = EDGE_CURVE ( 'NONE', #103, #103, #242, .T. ) ;
#241 = COORDINATED_UNIVERSAL_TIME_OFFSET ( 1, 0, .AHEAD. ) ;
#242 = CIRCLE ( 'NONE', #51, 1.199999999999997513 ) ;
#243 = ADVANCED_FACE ( 'NONE', ( #141, #44 ), #231, .T. ) ;
ENDSEC;
END-ISO-10303-21;
