ISO-10303-21;
HEADER;
FILE_DESCRIPTION (( 'STEP AP203' ),
    '1' );
FILE_NAME ('321275.step',
    '2021-11-26T13:02:03',
    ( '' ),
    ( '' ),
    'SwSTEP 2.0',
    'SolidWorks 2019',
    '' );
FILE_SCHEMA (( 'CONFIG_CONTROL_DESIGN' ));
ENDSEC;

DATA;
#1 = CIRCLE ( 'NONE', #162, 1.858999999999998431 ) ;
#2 = ORIENTED_EDGE ( 'NONE', *, *, #31, .F. ) ;
#3 = CALENDAR_DATE ( 2021, 26, 11 ) ;
#4 = CONICAL_SURFACE ( 'NONE', #71, 1.858999999999999764, 0.5235987755982938197 ) ;
#5 = DIRECTION ( 'NONE',  ( -3.491481338843133355E-15, -5.745671064425865007E-16, -1.000000000000000000 ) ) ;
#6 = DIRECTION ( 'NONE',  ( 2.006090330057386219E-30, -1.000000000000000000, 5.745671064425865007E-16 ) ) ;
#7 = DIRECTION ( 'NONE',  ( -3.491481338843133355E-15, 1.049697256412017316E-16, -1.000000000000000000 ) ) ;
#8 = AXIS2_PLACEMENT_3D ( 'NONE', #236, #142, #120 ) ;
#9 = CC_DESIGN_PERSON_AND_ORGANIZATION_ASSIGNMENT ( #146, #131, ( #54 ) ) ;
#10 = CARTESIAN_POINT ( 'NONE',  ( 3.652342792573097974E-14, 6.010388790336433055E-15, 10.46072551481333335 ) ) ;
#11 = EDGE_LOOP ( 'NONE', ( #169 ) ) ;
#12 = CC_DESIGN_PERSON_AND_ORGANIZATION_ASSIGNMENT ( #56, #16, ( #45 ) ) ;
#13 = COORDINATED_UNIVERSAL_TIME_OFFSET ( 1, 0, .AHEAD. ) ;
#14 = AXIS2_PLACEMENT_3D ( 'NONE', #160, #242, #87 ) ;
#15 = UNCERTAINTY_MEASURE_WITH_UNIT (LENGTH_MEASURE( 1.000000000000000082E-05 ), #205, 'distance_accuracy_value', 'NONE');
#16 = PERSON_AND_ORGANIZATION_ROLE ( 'design_owner' ) ;
#17 = CARTESIAN_POINT ( 'NONE',  ( 3.652342792573097343E-14, 1.858999999999998654, 10.46072551481333157 ) ) ;
#18 = AXIS2_PLACEMENT_3D ( 'NONE', #99, #150, #6 ) ;
#19 = CALENDAR_DATE ( 2021, 26, 11 ) ;
#20 = ORIENTED_EDGE ( 'NONE', *, *, #117, .T. ) ;
#21 = PERSON_AND_ORGANIZATION ( #190, #77 ) ;
#22 = LOCAL_TIME ( 14, 2, 3.000000000000000000, #24 ) ;
#23 = DATE_AND_TIME ( #192, #62 ) ;
#24 = COORDINATED_UNIVERSAL_TIME_OFFSET ( 1, 0, .AHEAD. ) ;
#25 = DIRECTION ( 'NONE',  ( -3.491481338843133355E-15, 1.049697256412017316E-16, -1.000000000000000000 ) ) ;
#26 = CARTESIAN_POINT ( 'NONE',  ( 3.652342792573097343E-14, -1.098059487297874146E-15, 10.46072551481333157 ) ) ;
#27 = ORIENTED_EDGE ( 'NONE', *, *, #70, .F. ) ;
#28 = CARTESIAN_POINT ( 'NONE',  ( 8.728703347107869873E-16, 1.436417766106472168E-16, 0.2500000000000010547 ) ) ;
#29 = FACE_BOUND ( 'NONE', #111, .T. ) ;
#30 = PERSON_AND_ORGANIZATION ( #190, #77 ) ;
#31 = EDGE_CURVE ( 'NONE', #187, #187, #123, .T. ) ;
#32 = FACE_OUTER_BOUND ( 'NONE', #98, .T. ) ;
#33 = DESIGN_CONTEXT ( 'detailed design', #202, 'design' ) ;
#34 = CC_DESIGN_DATE_AND_TIME_ASSIGNMENT ( #23, #76, ( #221 ) ) ;
#35 = ADVANCED_BREP_SHAPE_REPRESENTATION ( '321275', ( #60, #224, #195 ), #207 ) ;
#36 = CARTESIAN_POINT ( 'NONE',  ( 8.728703347107833388E-16, 1.858999999999998654, 0.2499999999999999445 ) ) ;
#37 = CONICAL_SURFACE ( 'NONE', #18, 1.714662432702592554, 0.5235987755982970393 ) ;
#38 = SHAPE_DEFINITION_REPRESENTATION ( #231, #35 ) ;
#39 = ORIENTED_EDGE ( 'NONE', *, *, #172, .T. ) ;
#40 = EDGE_LOOP ( 'NONE', ( #171 ) ) ;
#41 = AXIS2_PLACEMENT_3D ( 'NONE', #91, #241, #105 ) ;
#42 = CALENDAR_DATE ( 2021, 26, 11 ) ;
#43 = COORDINATED_UNIVERSAL_TIME_OFFSET ( 1, 0, .AHEAD. ) ;
#44 = DIRECTION ( 'NONE',  ( -3.491481338843133355E-15, -5.745671064425865007E-16, -1.000000000000000000 ) ) ;
#45 = PRODUCT ( '321275', '321275', '', ( #144 ) ) ;
#46 = AXIS2_PLACEMENT_3D ( 'NONE', #67, #124, #106 ) ;
#47 = ADVANCED_FACE ( 'NONE', ( #49, #199 ), #122, .T. ) ;
#48 = CARTESIAN_POINT ( 'NONE',  ( 0.0000000000000000000, 0.0000000000000000000, 0.0000000000000000000 ) ) ;
#49 = FACE_OUTER_BOUND ( 'NONE', #154, .T. ) ;
#50 = DIRECTION ( 'NONE',  ( 2.006090330057386920E-30, -1.000000000000000000, 5.745671064425865007E-16 ) ) ;
#51 = PLANE ( 'NONE',  #179 ) ;
#52 = CARTESIAN_POINT ( 'NONE',  ( 2.433562493173664138E-13, 1.499999999999990230, 69.70000000000001705 ) ) ;
#53 = CLOSED_SHELL ( 'NONE', ( #209, #161, #47, #157, #229 ) ) ;
#54 = PRODUCT_DEFINITION ( 'UNKNOWN', '', #213, #33 ) ;
#55 = VERTEX_POINT ( 'NONE', #189 ) ;
#56 = PERSON_AND_ORGANIZATION ( #190, #77 ) ;
#57 = CIRCLE ( 'NONE', #46, 1.714662432702592554 ) ;
#58 = ORIENTED_EDGE ( 'NONE', *, *, #129, .F. ) ;
#59 = PERSON_AND_ORGANIZATION ( #190, #77 ) ;
#60 = MANIFOLD_SOLID_BREP ( 'Corps-Déplacer/Copier1[1]', #53 ) ;
#61 = CC_DESIGN_PERSON_AND_ORGANIZATION_ASSIGNMENT ( #208, #135, ( #213 ) ) ;
#62 = LOCAL_TIME ( 14, 2, 3.000000000000000000, #94 ) ;
#63 = DATE_AND_TIME ( #19, #22 ) ;
#64 = PLANE ( 'NONE',  #149 ) ;
#65 = PRODUCT_RELATED_PRODUCT_CATEGORY ( 'detail', '', ( #45 ) ) ;
#66 = AXIS2_PLACEMENT_3D ( 'NONE', #72, #210, #201 ) ;
#67 = CARTESIAN_POINT ( 'NONE',  ( 3.250494142919029882E-30, 5.349096366141201170E-31, 9.309785238594596403E-16 ) ) ;
#68 = ORIENTED_EDGE ( 'NONE', *, *, #31, .T. ) ;
#69 = CARTESIAN_POINT ( 'NONE',  ( 0.0000000000000000000, 0.0000000000000000000, 0.0000000000000000000 ) ) ;
#70 = EDGE_CURVE ( 'NONE', #204, #204, #1, .T. ) ;
#71 = AXIS2_PLACEMENT_3D ( 'NONE', #26, #25, #83 ) ;
#72 = CARTESIAN_POINT ( 'NONE',  ( 2.433562493173664138E-13, -7.316389877191761450E-15, 69.70000000000001705 ) ) ;
#73 = VERTEX_POINT ( 'NONE', #52 ) ;
#74 = CARTESIAN_POINT ( 'NONE',  ( 2.444036937190193601E-13, -7.347880794884121511E-15, 70.00000000000000000 ) ) ;
#75 = ADVANCED_FACE ( 'NONE', ( #197, #194 ), #37, .T. ) ;
#76 = DATE_TIME_ROLE ( 'classification_date' ) ;
#77 = ORGANIZATION ( 'UNSPECIFIED', 'UNSPECIFIED', '' ) ;
#78 = DATE_AND_TIME ( #42, #200 ) ;
#79 = CC_DESIGN_PERSON_AND_ORGANIZATION_ASSIGNMENT ( #21, #113, ( #213 ) ) ;
#80 = DATE_AND_TIME ( #227, #134 ) ;
#81 = CC_DESIGN_DATE_AND_TIME_ASSIGNMENT ( #78, #110, ( #54 ) ) ;
#82 = ORIENTED_EDGE ( 'NONE', *, *, #129, .T. ) ;
#83 = DIRECTION ( 'NONE',  ( 0.0000000000000000000, 1.000000000000000000, 0.0000000000000000000 ) ) ;
#84 = DIRECTION ( 'NONE',  ( 0.0000000000000000000, 1.000000000000000000, 0.0000000000000000000 ) ) ;
#85 = FACE_OUTER_BOUND ( 'NONE', #234, .T. ) ;
#86 = CARTESIAN_POINT ( 'NONE',  ( -1.892735826383161356E-31, 1.714662432702592554, -5.421010862427522170E-17 ) ) ;
#87 = DIRECTION ( 'NONE',  ( -3.315210232404077048E-30, 1.000000000000000000, -9.331487229568660524E-16 ) ) ;
#88 = FACE_OUTER_BOUND ( 'NONE', #226, .T. ) ;
#89 = APPROVAL_PERSON_ORGANIZATION ( #59, #239, #170 ) ;
#90 = APPLICATION_CONTEXT ( 'configuration controlled 3d designs of mechanical parts and assemblies' ) ;
#91 = CARTESIAN_POINT ( 'NONE',  ( -1.814520654097831055E-30, 1.714662432702592554, -5.196993705540050418E-16 ) ) ;
#92 = ADVANCED_FACE ( 'NONE', ( #85, #140 ), #214, .T. ) ;
#93 = ORIENTED_EDGE ( 'NONE', *, *, #176, .F. ) ;
#94 = COORDINATED_UNIVERSAL_TIME_OFFSET ( 1, 0, .AHEAD. ) ;
#95 = APPROVAL_PERSON_ORGANIZATION ( #30, #211, #182 ) ;
#96 = DIRECTION ( 'NONE',  ( -3.491481338843133355E-15, 1.049697256412017316E-16, -1.000000000000000000 ) ) ;
#97 = FACE_BOUND ( 'NONE', #175, .T. ) ;
#98 = EDGE_LOOP ( 'NONE', ( #177 ) ) ;
#99 = CARTESIAN_POINT ( 'NONE',  ( 3.250494142919029882E-30, 5.349096366141201170E-31, 9.309785238594596403E-16 ) ) ;
#100 = FACE_OUTER_BOUND ( 'NONE', #136, .T. ) ;
#101 = APPROVAL_STATUS ( 'not_yet_approved' ) ;
#102 = APPROVAL ( #168, 'UNSPECIFIED' ) ;
#103 = VERTEX_POINT ( 'NONE', #86 ) ;
#104 = DIRECTION ( 'NONE',  ( 3.491481338843133355E-15, -1.049697256412017316E-16, 1.000000000000000000 ) ) ;
#105 = DIRECTION ( 'NONE',  ( -2.006090330057386920E-30, 1.000000000000000000, -5.745671064425865007E-16 ) ) ;
#106 = DIRECTION ( 'NONE',  ( -2.006090330057386920E-30, 1.000000000000000000, -5.745671064425865007E-16 ) ) ;
#107 = CIRCLE ( 'NONE', #112, 1.499999999999997558 ) ;
#108 = APPROVAL_DATE_TIME ( #63, #239 ) ;
#109 = ADVANCED_FACE ( 'NONE', ( #116 ), #64, .T. ) ;
#110 = DATE_TIME_ROLE ( 'creation_date' ) ;
#111 = EDGE_LOOP ( 'NONE', ( #39 ) ) ;
#112 = AXIS2_PLACEMENT_3D ( 'NONE', #153, #7, #137 ) ;
#113 = PERSON_AND_ORGANIZATION_ROLE ( 'design_supplier' ) ;
#114 = EDGE_LOOP ( 'NONE', ( #93 ) ) ;
#115 = APPROVAL_DATE_TIME ( #80, #211 ) ;
#116 = FACE_OUTER_BOUND ( 'NONE', #40, .T. ) ;
#117 = EDGE_CURVE ( 'NONE', #73, #73, #107, .T. ) ;
#118 = CONICAL_SURFACE ( 'NONE', #66, 1.499999999999997558, 0.7853981633974573828 ) ;
#119 = CC_DESIGN_APPROVAL ( #102, ( #221 ) ) ;
#120 = DIRECTION ( 'NONE',  ( 0.0000000000000000000, 1.000000000000000000, 0.0000000000000000000 ) ) ;
#121 = CARTESIAN_POINT ( 'NONE',  ( 3.869445280877825814E-14, -1.163330317703974832E-15, 11.08253175473057794 ) ) ;
#122 = CYLINDRICAL_SURFACE ( 'NONE', #217, 1.499999999999995337 ) ;
#123 = CIRCLE ( 'NONE', #8, 1.858999999999999764 ) ;
#124 = DIRECTION ( 'NONE',  ( -3.491481338843133355E-15, -5.745671064425865007E-16, -1.000000000000000000 ) ) ;
#125 = DIRECTION ( 'NONE',  ( 1.000000000000000000, 0.0000000000000000000, 0.0000000000000000000 ) ) ;
#126 = DIRECTION ( 'NONE',  ( -3.664998382197393967E-31, -1.000000000000000000, -1.049697256412017316E-16 ) ) ;
#127 = CC_DESIGN_APPROVAL ( #211, ( #54 ) ) ;
#128 = PLANE ( 'NONE',  #183 ) ;
#129 = EDGE_CURVE ( 'NONE', #222, #222, #174, .T. ) ;
#130 = CARTESIAN_POINT ( 'NONE',  ( 2.444036937190193601E-13, 1.199999999999990186, 70.00000000000000000 ) ) ;
#131 = PERSON_AND_ORGANIZATION_ROLE ( 'creator' ) ;
#132 = ORIENTED_EDGE ( 'NONE', *, *, #172, .F. ) ;
#133 = PERSON_AND_ORGANIZATION_ROLE ( 'classification_officer' ) ;
#134 = LOCAL_TIME ( 14, 2, 3.000000000000000000, #13 ) ;
#135 = PERSON_AND_ORGANIZATION_ROLE ( 'creator' ) ;
#136 = EDGE_LOOP ( 'NONE', ( #2 ) ) ;
#137 = DIRECTION ( 'NONE',  ( 0.0000000000000000000, 1.000000000000000000, 0.0000000000000000000 ) ) ;
#138 = AXIS2_PLACEMENT_3D ( 'NONE', #178, #237, #212 ) ;
#139 = LOCAL_TIME ( 14, 2, 3.000000000000000000, #43 ) ;
#140 = FACE_OUTER_BOUND ( 'NONE', #215, .T. ) ;
#141 = ORIENTED_EDGE ( 'NONE', *, *, #70, .T. ) ;
#142 = DIRECTION ( 'NONE',  ( -3.491481338843133355E-15, 1.049697256412017316E-16, -1.000000000000000000 ) ) ;
#143 = PLANE ( 'NONE',  #41 ) ;
#144 = MECHANICAL_CONTEXT ( 'NONE', #90, 'mechanical' ) ;
#145 = APPROVAL_STATUS ( 'not_yet_approved' ) ;
#146 = PERSON_AND_ORGANIZATION ( #190, #77 ) ;
#147 = COORDINATED_UNIVERSAL_TIME_OFFSET ( 1, 0, .AHEAD. ) ;
#148 = APPROVAL_ROLE ( '' ) ;
#149 = AXIS2_PLACEMENT_3D ( 'NONE', #10, #180, #50 ) ;
#150 = DIRECTION ( 'NONE',  ( 3.491481338843133355E-15, 5.745671064425865007E-16, 1.000000000000000000 ) ) ;
#151 = DIRECTION ( 'NONE',  ( -1.968406075489914529E-30, 1.000000000000000000, -5.832179518480394092E-16 ) ) ;
#152 = CC_DESIGN_SECURITY_CLASSIFICATION ( #221, ( #213 ) ) ;
#153 = CARTESIAN_POINT ( 'NONE',  ( 2.433562493173664138E-13, -7.316389877191761450E-15, 69.70000000000001705 ) ) ;
#154 = EDGE_LOOP ( 'NONE', ( #20 ) ) ;
#155 = EDGE_LOOP ( 'NONE', ( #132 ) ) ;
#156 = CIRCLE ( 'NONE', #166, 1.499999999999992673 ) ;
#157 = ADVANCED_FACE ( 'NONE', ( #29, #100 ), #4, .T. ) ;
#158 = FACE_OUTER_BOUND ( 'NONE', #191, .T. ) ;
#159 = APPLICATION_PROTOCOL_DEFINITION ( 'international standard', 'config_control_design', 1994, #202 ) ;
#160 = CARTESIAN_POINT ( 'NONE',  ( 3.652342792573097974E-14, 6.010388790336433055E-15, 10.46072551481333335 ) ) ;
#161 = ADVANCED_FACE ( 'NONE', ( #97, #181 ), #118, .T. ) ;
#162 = AXIS2_PLACEMENT_3D ( 'NONE', #28, #5, #151 ) ;
#163 = DIRECTION ( 'NONE',  ( -3.491481338843133355E-15, 1.049697256412017316E-16, -1.000000000000000000 ) ) ;
#164 = CARTESIAN_POINT ( 'NONE',  ( 3.652342792573097343E-14, 1.858999999999998654, 10.46072551481333157 ) ) ;
#165 = DATE_AND_TIME ( #3, #139 ) ;
#166 = AXIS2_PLACEMENT_3D ( 'NONE', #121, #96, #84 ) ;
#167 = ORIENTED_EDGE ( 'NONE', *, *, #186, .T. ) ;
#168 = APPROVAL_STATUS ( 'not_yet_approved' ) ;
#169 = ORIENTED_EDGE ( 'NONE', *, *, #117, .F. ) ;
#170 = APPROVAL_ROLE ( '' ) ;
#171 = ORIENTED_EDGE ( 'NONE', *, *, #186, .F. ) ;
#172 = EDGE_CURVE ( 'NONE', #55, #55, #156, .T. ) ;
#173 = PERSON_AND_ORGANIZATION ( #190, #77 ) ;
#174 = CIRCLE ( 'NONE', #138, 1.199999999999997513 ) ;
#175 = EDGE_LOOP ( 'NONE', ( #82 ) ) ;
#176 = EDGE_CURVE ( 'NONE', #103, #103, #57, .T. ) ;
#177 = ORIENTED_EDGE ( 'NONE', *, *, #176, .T. ) ;
#178 = CARTESIAN_POINT ( 'NONE',  ( 2.444036937190193601E-13, -7.347880794884121511E-15, 70.00000000000000000 ) ) ;
#179 = AXIS2_PLACEMENT_3D ( 'NONE', #74, #104, #126 ) ;
#180 = DIRECTION ( 'NONE',  ( 3.491481338843133355E-15, 5.745671064425865007E-16, 1.000000000000000000 ) ) ;
#181 = FACE_OUTER_BOUND ( 'NONE', #11, .T. ) ;
#182 = APPROVAL_ROLE ( '' ) ;
#183 = AXIS2_PLACEMENT_3D ( 'NONE', #206, #163, #220 ) ;
#184 = APPROVAL_PERSON_ORGANIZATION ( #173, #102, #148 ) ;
#185 = DIRECTION ( 'NONE',  ( 0.0000000000000000000, 0.0000000000000000000, 1.000000000000000000 ) ) ;
#186 = EDGE_CURVE ( 'NONE', #243, #243, #233, .T. ) ;
#187 = VERTEX_POINT ( 'NONE', #164 ) ;
#188 = CLOSED_SHELL ( 'NONE', ( #109, #92, #75, #235 ) ) ;
#189 = CARTESIAN_POINT ( 'NONE',  ( 3.869445280877825814E-14, 1.499999999999991562, 11.08253175473057794 ) ) ;
#190 = PERSON ( 'UNSPECIFIED', 'UNSPECIFIED', 'UNSPECIFIED', ('UNSPECIFIED'), ('UNSPECIFIED'), ('UNSPECIFIED') ) ;
#191 = EDGE_LOOP ( 'NONE', ( #68 ) ) ;
#192 = CALENDAR_DATE ( 2021, 26, 11 ) ;
#193 = APPROVAL_DATE_TIME ( #165, #102 ) ;
#194 = FACE_BOUND ( 'NONE', #114, .T. ) ;
#195 = AXIS2_PLACEMENT_3D ( 'NONE', #240, #185, #125 ) ;
#196 = CC_DESIGN_PERSON_AND_ORGANIZATION_ASSIGNMENT ( #225, #133, ( #221 ) ) ;
#197 = FACE_OUTER_BOUND ( 'NONE', #198, .T. ) ;
#198 = EDGE_LOOP ( 'NONE', ( #141 ) ) ;
#199 = FACE_OUTER_BOUND ( 'NONE', #155, .T. ) ;
#200 = LOCAL_TIME ( 14, 2, 3.000000000000000000, #147 ) ;
#201 = DIRECTION ( 'NONE',  ( 0.0000000000000000000, 1.000000000000000000, 0.0000000000000000000 ) ) ;
#202 = APPLICATION_CONTEXT ( 'configuration controlled 3d designs of mechanical parts and assemblies' ) ;
#203 =( NAMED_UNIT ( * ) SI_UNIT ( $, .STERADIAN. ) SOLID_ANGLE_UNIT ( ) );
#204 = VERTEX_POINT ( 'NONE', #36 ) ;
#205 =( LENGTH_UNIT ( ) NAMED_UNIT ( * ) SI_UNIT ( .MILLI., .METRE. ) );
#206 = CARTESIAN_POINT ( 'NONE',  ( 3.652342792573097974E-14, 1.858999999999998654, 10.46072551481333335 ) ) ;
#207 =( GEOMETRIC_REPRESENTATION_CONTEXT ( 3 ) GLOBAL_UNCERTAINTY_ASSIGNED_CONTEXT ( ( #15 ) ) GLOBAL_UNIT_ASSIGNED_CONTEXT ( ( #205, #219, #203 ) ) REPRESENTATION_CONTEXT ( 'NONE', 'WORKASPACE' ) );
#208 = PERSON_AND_ORGANIZATION ( #190, #77 ) ;
#209 = ADVANCED_FACE ( 'NONE', ( #88 ), #51, .T. ) ;
#210 = DIRECTION ( 'NONE',  ( -3.491481338843133355E-15, 1.049697256412017316E-16, -1.000000000000000000 ) ) ;
#211 = APPROVAL ( #101, 'UNSPECIFIED' ) ;
#212 = DIRECTION ( 'NONE',  ( 0.0000000000000000000, 1.000000000000000000, 0.0000000000000000000 ) ) ;
#213 = PRODUCT_DEFINITION_FORMATION_WITH_SPECIFIED_SOURCE ( 'ANY', '', #45, .NOT_KNOWN. ) ;
#214 = CYLINDRICAL_SURFACE ( 'NONE', #238, 1.858999999999995545 ) ;
#215 = EDGE_LOOP ( 'NONE', ( #27 ) ) ;
#216 = DIRECTION ( 'NONE',  ( 3.664998382197393967E-31, 1.000000000000000000, 1.049697256412017316E-16 ) ) ;
#217 = AXIS2_PLACEMENT_3D ( 'NONE', #69, #230, #216 ) ;
#218 = APPLICATION_PROTOCOL_DEFINITION ( 'international standard', 'config_control_design', 1994, #90 ) ;
#219 =( NAMED_UNIT ( * ) PLANE_ANGLE_UNIT ( ) SI_UNIT ( $, .RADIAN. ) );
#220 = DIRECTION ( 'NONE',  ( 3.664998382197393967E-31, 1.000000000000000000, 1.049697256412017316E-16 ) ) ;
#221 = SECURITY_CLASSIFICATION ( '', '', #223 ) ;
#222 = VERTEX_POINT ( 'NONE', #130 ) ;
#223 = SECURITY_CLASSIFICATION_LEVEL ( 'unclassified' ) ;
#224 = MANIFOLD_SOLID_BREP ( 'Corps-Déplacer/Copier1[2]', #188 ) ;
#225 = PERSON_AND_ORGANIZATION ( #190, #77 ) ;
#226 = EDGE_LOOP ( 'NONE', ( #58 ) ) ;
#227 = CALENDAR_DATE ( 2021, 26, 11 ) ;
#228 = CC_DESIGN_APPROVAL ( #239, ( #213 ) ) ;
#229 = ADVANCED_FACE ( 'NONE', ( #158 ), #128, .T. ) ;
#230 = DIRECTION ( 'NONE',  ( -3.491481338843133355E-15, 1.049697256412017316E-16, -1.000000000000000000 ) ) ;
#231 = PRODUCT_DEFINITION_SHAPE ( 'NONE', 'NONE',  #54 ) ;
#232 = DIRECTION ( 'NONE',  ( -2.006090330057387270E-30, 1.000000000000000000, -5.745671064425865993E-16 ) ) ;
#233 = CIRCLE ( 'NONE', #14, 1.858999999999992658 ) ;
#234 = EDGE_LOOP ( 'NONE', ( #167 ) ) ;
#235 = ADVANCED_FACE ( 'NONE', ( #32 ), #143, .T. ) ;
#236 = CARTESIAN_POINT ( 'NONE',  ( 3.652342792573097343E-14, -1.098059487297874146E-15, 10.46072551481333157 ) ) ;
#237 = DIRECTION ( 'NONE',  ( -3.491481338843133355E-15, 1.049697256412017316E-16, -1.000000000000000000 ) ) ;
#238 = AXIS2_PLACEMENT_3D ( 'NONE', #48, #44, #232 ) ;
#239 = APPROVAL ( #145, 'UNSPECIFIED' ) ;
#240 = CARTESIAN_POINT ( 'NONE',  ( 0.0000000000000000000, 0.0000000000000000000, 0.0000000000000000000 ) ) ;
#241 = DIRECTION ( 'NONE',  ( -3.491481338843133355E-15, -5.745671064425865007E-16, -1.000000000000000000 ) ) ;
#242 = DIRECTION ( 'NONE',  ( -3.491481338843133355E-15, -5.745671064425865007E-16, -1.000000000000000000 ) ) ;
#243 = VERTEX_POINT ( 'NONE', #17 ) ;
ENDSEC;
END-ISO-10303-21;
