ISO-10303-21;
HEADER;
FILE_DESCRIPTION (( 'STEP AP203' ),
    '1' );
FILE_NAME ('321274.step',
    '2021-11-26T13:02:03',
    ( '' ),
    ( '' ),
    'SwSTEP 2.0',
    'SolidWorks 2019',
    '' );
FILE_SCHEMA (( 'CONFIG_CONTROL_DESIGN' ));
ENDSEC;

DATA;
#1 = APPROVAL_DATE_TIME ( #98, #104 ) ;
#2 = CARTESIAN_POINT ( 'NONE',  ( 3.236417218629406819E-30, 5.319647379247211366E-31, 9.269467325011568661E-16 ) ) ;
#3 = DIRECTION ( 'NONE',  ( -3.491481338843133355E-15, -5.738892206775832841E-16, -1.000000000000000000 ) ) ;
#4 = COORDINATED_UNIVERSAL_TIME_OFFSET ( 1, 0, .AHEAD. ) ;
#5 = DATE_AND_TIME ( #107, #157 ) ;
#6 = EDGE_LOOP ( 'NONE', ( #167 ) ) ;
#7 = CC_DESIGN_APPROVAL ( #104, ( #114 ) ) ;
#8 = DATE_AND_TIME ( #199, #18 ) ;
#9 = EDGE_LOOP ( 'NONE', ( #124 ) ) ;
#10 = CALENDAR_DATE ( 2021, 26, 11 ) ;
#11 = CC_DESIGN_PERSON_AND_ORGANIZATION_ASSIGNMENT ( #78, #209, ( #114 ) ) ;
#12 = AXIS2_PLACEMENT_3D ( 'NONE', #113, #238, #173 ) ;
#13 = DIRECTION ( 'NONE',  ( 3.664998382197393967E-31, 1.000000000000000000, 1.049697256412017316E-16 ) ) ;
#14 = FACE_OUTER_BOUND ( 'NONE', #96, .T. ) ;
#15 = UNCERTAINTY_MEASURE_WITH_UNIT (LENGTH_MEASURE( 1.000000000000000082E-05 ), #100, 'distance_accuracy_value', 'NONE');
#16 = FACE_OUTER_BOUND ( 'NONE', #9, .T. ) ;
#17 = PLANE ( 'NONE',  #142 ) ;
#18 = LOCAL_TIME ( 14, 2, 3.000000000000000000, #148 ) ;
#19 = DIRECTION ( 'NONE',  ( 2.003723504559011466E-30, -1.000000000000000000, 5.738892206775832841E-16 ) ) ;
#20 = ADVANCED_FACE ( 'NONE', ( #14 ), #223, .T. ) ;
#21 = AXIS2_PLACEMENT_3D ( 'NONE', #190, #72, #242 ) ;
#22 = EDGE_CURVE ( 'NONE', #44, #44, #169, .T. ) ;
#23 = AXIS2_PLACEMENT_3D ( 'NONE', #162, #229, #62 ) ;
#24 = EDGE_LOOP ( 'NONE', ( #54 ) ) ;
#25 = PERSON_AND_ORGANIZATION ( #116, #86 ) ;
#26 = EDGE_LOOP ( 'NONE', ( #74 ) ) ;
#27 = AXIS2_PLACEMENT_3D ( 'NONE', #152, #109, #189 ) ;
#28 = COORDINATED_UNIVERSAL_TIME_OFFSET ( 1, 0, .AHEAD. ) ;
#29 = PERSON_AND_ORGANIZATION_ROLE ( 'design_supplier' ) ;
#30 = EDGE_LOOP ( 'NONE', ( #66 ) ) ;
#31 = CIRCLE ( 'NONE', #43, 1.853999999999999870 ) ;
#32 = FACE_BOUND ( 'NONE', #24, .T. ) ;
#33 = EDGE_CURVE ( 'NONE', #120, #120, #207, .T. ) ;
#34 = DIRECTION ( 'NONE',  ( -3.491481338843133355E-15, 1.049697256412017316E-16, -1.000000000000000000 ) ) ;
#35 = DESIGN_CONTEXT ( 'detailed design', #82, 'design' ) ;
#36 = DIRECTION ( 'NONE',  ( 0.0000000000000000000, 1.000000000000000000, 0.0000000000000000000 ) ) ;
#37 = APPLICATION_CONTEXT ( 'configuration controlled 3d designs of mechanical parts and assemblies' ) ;
#38 = CLOSED_SHELL ( 'NONE', ( #76, #149, #110, #56 ) ) ;
#39 = DIRECTION ( 'NONE',  ( -3.491481338843133355E-15, 1.049697256412017316E-16, -1.000000000000000000 ) ) ;
#40 = PRODUCT_RELATED_PRODUCT_CATEGORY ( 'detail', '', ( #186 ) ) ;
#41 = CARTESIAN_POINT ( 'NONE',  ( 2.433562493173664138E-13, 1.499999999999990230, 69.70000000000001705 ) ) ;
#42 = CARTESIAN_POINT ( 'NONE',  ( 3.655366504109374847E-14, 1.853999999999998982, 10.46938576885117556 ) ) ;
#43 = AXIS2_PLACEMENT_3D ( 'NONE', #133, #240, #243 ) ;
#44 = VERTEX_POINT ( 'NONE', #163 ) ;
#45 = VERTEX_POINT ( 'NONE', #41 ) ;
#46 = CC_DESIGN_APPROVAL ( #175, ( #129 ) ) ;
#47 = CC_DESIGN_PERSON_AND_ORGANIZATION_ASSIGNMENT ( #118, #226, ( #186 ) ) ;
#48 = ORIENTED_EDGE ( 'NONE', *, *, #102, .F. ) ;
#49 = APPROVAL_DATE_TIME ( #146, #230 ) ;
#50 = EDGE_LOOP ( 'NONE', ( #165 ) ) ;
#51 = CARTESIAN_POINT ( 'NONE',  ( 0.0000000000000000000, 0.0000000000000000000, 0.0000000000000000000 ) ) ;
#52 =( GEOMETRIC_REPRESENTATION_CONTEXT ( 3 ) GLOBAL_UNCERTAINTY_ASSIGNED_CONTEXT ( ( #15 ) ) GLOBAL_UNIT_ASSIGNED_CONTEXT ( ( #100, #139, #179 ) ) REPRESENTATION_CONTEXT ( 'NONE', 'WORKASPACE' ) );
#53 = FACE_OUTER_BOUND ( 'NONE', #112, .T. ) ;
#54 = ORIENTED_EDGE ( 'NONE', *, *, #33, .T. ) ;
#55 = FACE_BOUND ( 'NONE', #126, .T. ) ;
#56 = ADVANCED_FACE ( 'NONE', ( #206 ), #204, .T. ) ;
#57 = FACE_OUTER_BOUND ( 'NONE', #6, .T. ) ;
#58 = AXIS2_PLACEMENT_3D ( 'NONE', #93, #75, #155 ) ;
#59 = DIRECTION ( 'NONE',  ( -3.324150928823720813E-30, 1.000000000000000000, -9.356653052733623266E-16 ) ) ;
#60 = PERSON_AND_ORGANIZATION ( #116, #86 ) ;
#61 = CC_DESIGN_PERSON_AND_ORGANIZATION_ASSIGNMENT ( #68, #166, ( #129 ) ) ;
#62 = DIRECTION ( 'NONE',  ( 1.000000000000000000, 0.0000000000000000000, 0.0000000000000000000 ) ) ;
#63 = FACE_OUTER_BOUND ( 'NONE', #128, .T. ) ;
#64 = ADVANCED_FACE ( 'NONE', ( #32, #16 ), #65, .T. ) ;
#65 = CONICAL_SURFACE ( 'NONE', #177, 1.499999999999997558, 0.7853981633974573828 ) ;
#66 = ORIENTED_EDGE ( 'NONE', *, *, #218, .T. ) ;
#67 = MANIFOLD_SOLID_BREP ( 'Corps-Déplacer/Copier1[2]', #38 ) ;
#68 = PERSON_AND_ORGANIZATION ( #116, #86 ) ;
#69 = DATE_TIME_ROLE ( 'classification_date' ) ;
#70 = LOCAL_TIME ( 14, 2, 3.000000000000000000, #4 ) ;
#71 = FACE_OUTER_BOUND ( 'NONE', #220, .T. ) ;
#72 = DIRECTION ( 'NONE',  ( -3.491481338843133355E-15, 1.049697256412017316E-16, -1.000000000000000000 ) ) ;
#73 = AXIS2_PLACEMENT_3D ( 'NONE', #156, #135, #19 ) ;
#74 = ORIENTED_EDGE ( 'NONE', *, *, #84, .T. ) ;
#75 = DIRECTION ( 'NONE',  ( -3.491481338843133355E-15, 1.049697256412017316E-16, -1.000000000000000000 ) ) ;
#76 = ADVANCED_FACE ( 'NONE', ( #57 ), #131, .T. ) ;
#77 = DIRECTION ( 'NONE',  ( -3.491481338843133355E-15, -5.738892206775832841E-16, -1.000000000000000000 ) ) ;
#78 = PERSON_AND_ORGANIZATION ( #116, #86 ) ;
#79 = AXIS2_PLACEMENT_3D ( 'NONE', #224, #77, #115 ) ;
#80 = CARTESIAN_POINT ( 'NONE',  ( 3.869445280877825814E-14, 1.499999999999991562, 11.08253175473057794 ) ) ;
#81 = DIRECTION ( 'NONE',  ( 0.0000000000000000000, 1.000000000000000000, 0.0000000000000000000 ) ) ;
#82 = APPLICATION_CONTEXT ( 'configuration controlled 3d designs of mechanical parts and assemblies' ) ;
#83 = DIRECTION ( 'NONE',  ( 3.664998382197393967E-31, 1.000000000000000000, 1.049697256412017316E-16 ) ) ;
#84 = EDGE_CURVE ( 'NONE', #140, #140, #31, .T. ) ;
#85 = EDGE_LOOP ( 'NONE', ( #198 ) ) ;
#86 = ORGANIZATION ( 'UNSPECIFIED', 'UNSPECIFIED', '' ) ;
#87 = SECURITY_CLASSIFICATION_LEVEL ( 'unclassified' ) ;
#88 = ADVANCED_FACE ( 'NONE', ( #150 ), #17, .T. ) ;
#89 = DATE_TIME_ROLE ( 'creation_date' ) ;
#90 = CONICAL_SURFACE ( 'NONE', #73, 1.709662432702592660, 0.5235987755982970393 ) ;
#91 = CYLINDRICAL_SURFACE ( 'NONE', #27, 1.853999999999995874 ) ;
#92 = EDGE_CURVE ( 'NONE', #45, #45, #185, .T. ) ;
#93 = CARTESIAN_POINT ( 'NONE',  ( 3.869445280877825814E-14, -1.163330317703974832E-15, 11.08253175473057794 ) ) ;
#94 = CARTESIAN_POINT ( 'NONE',  ( 3.655366504109374847E-14, 6.008267639858982177E-15, 10.46938576885117556 ) ) ;
#95 = LOCAL_TIME ( 14, 2, 3.000000000000000000, #188 ) ;
#96 = EDGE_LOOP ( 'NONE', ( #234 ) ) ;
#97 = CARTESIAN_POINT ( 'NONE',  ( 2.433562493173664138E-13, -7.316389877191761450E-15, 69.70000000000001705 ) ) ;
#98 = DATE_AND_TIME ( #231, #70 ) ;
#99 = VERTEX_POINT ( 'NONE', #80 ) ;
#100 =( LENGTH_UNIT ( ) NAMED_UNIT ( * ) SI_UNIT ( .MILLI., .METRE. ) );
#101 = CARTESIAN_POINT ( 'NONE',  ( 3.655366504109374847E-14, -1.098968551788209673E-15, 10.46938576885117556 ) ) ;
#102 = EDGE_CURVE ( 'NONE', #99, #99, #241, .T. ) ;
#103 = PERSON_AND_ORGANIZATION ( #116, #86 ) ;
#104 = APPROVAL ( #141, 'UNSPECIFIED' ) ;
#105 = ORIENTED_EDGE ( 'NONE', *, *, #239, .F. ) ;
#106 = CIRCLE ( 'NONE', #132, 1.853999999999992765 ) ;
#107 = CALENDAR_DATE ( 2021, 26, 11 ) ;
#108 = PERSON_AND_ORGANIZATION ( #116, #86 ) ;
#109 = DIRECTION ( 'NONE',  ( -3.491481338843133355E-15, -5.738892206775832841E-16, -1.000000000000000000 ) ) ;
#110 = ADVANCED_FACE ( 'NONE', ( #237, #55 ), #90, .T. ) ;
#111 = CLOSED_SHELL ( 'NONE', ( #20, #64, #151, #160, #88 ) ) ;
#112 = EDGE_LOOP ( 'NONE', ( #164 ) ) ;
#113 = CARTESIAN_POINT ( 'NONE',  ( 2.444036937190193601E-13, -7.347880794884121511E-15, 70.00000000000000000 ) ) ;
#114 = PRODUCT_DEFINITION ( 'UNKNOWN', '', #228, #35 ) ;
#115 = DIRECTION ( 'NONE',  ( -2.003723504559010766E-30, 1.000000000000000000, -5.738892206775832841E-16 ) ) ;
#116 = PERSON ( 'UNSPECIFIED', 'UNSPECIFIED', 'UNSPECIFIED', ('UNSPECIFIED'), ('UNSPECIFIED'), ('UNSPECIFIED') ) ;
#117 = CARTESIAN_POINT ( 'NONE',  ( 2.444036937190193601E-13, -7.347880794884121511E-15, 70.00000000000000000 ) ) ;
#118 = PERSON_AND_ORGANIZATION ( #116, #86 ) ;
#119 = CARTESIAN_POINT ( 'NONE',  ( -1.892735826383161356E-31, 1.709662432702592660, -5.421010862427522170E-17 ) ) ;
#120 = VERTEX_POINT ( 'NONE', #122 ) ;
#121 = AXIS2_PLACEMENT_3D ( 'NONE', #101, #180, #81 ) ;
#122 = CARTESIAN_POINT ( 'NONE',  ( 2.444036937190193601E-13, 1.199999999999990186, 70.00000000000000000 ) ) ;
#123 = LOCAL_TIME ( 14, 2, 3.000000000000000000, #125 ) ;
#124 = ORIENTED_EDGE ( 'NONE', *, *, #92, .F. ) ;
#125 = COORDINATED_UNIVERSAL_TIME_OFFSET ( 1, 0, .AHEAD. ) ;
#126 = EDGE_LOOP ( 'NONE', ( #105 ) ) ;
#127 = APPROVAL_DATE_TIME ( #5, #175 ) ;
#128 = EDGE_LOOP ( 'NONE', ( #232 ) ) ;
#129 = SECURITY_CLASSIFICATION ( '', '', #87 ) ;
#130 = APPROVAL_PERSON_ORGANIZATION ( #103, #230, #235 ) ;
#131 = PLANE ( 'NONE',  #200 ) ;
#132 = AXIS2_PLACEMENT_3D ( 'NONE', #158, #3, #59 ) ;
#133 = CARTESIAN_POINT ( 'NONE',  ( 3.655366504109374847E-14, -1.098968551788209673E-15, 10.46938576885117556 ) ) ;
#134 = DIRECTION ( 'NONE',  ( -1.973714613989078124E-30, 1.000000000000000000, -5.847908157958495560E-16 ) ) ;
#135 = DIRECTION ( 'NONE',  ( 3.491481338843133355E-15, 5.738892206775832841E-16, 1.000000000000000000 ) ) ;
#136 = AXIS2_PLACEMENT_3D ( 'NONE', #2, #176, #212 ) ;
#137 = FACE_OUTER_BOUND ( 'NONE', #30, .T. ) ;
#138 = CC_DESIGN_PERSON_AND_ORGANIZATION_ASSIGNMENT ( #184, #201, ( #228 ) ) ;
#139 =( NAMED_UNIT ( * ) PLANE_ANGLE_UNIT ( ) SI_UNIT ( $, .RADIAN. ) );
#140 = VERTEX_POINT ( 'NONE', #195 ) ;
#141 = APPROVAL_STATUS ( 'not_yet_approved' ) ;
#142 = AXIS2_PLACEMENT_3D ( 'NONE', #192, #39, #13 ) ;
#143 = VERTEX_POINT ( 'NONE', #119 ) ;
#144 = APPROVAL_STATUS ( 'not_yet_approved' ) ;
#145 = EDGE_LOOP ( 'NONE', ( #182 ) ) ;
#146 = DATE_AND_TIME ( #10, #123 ) ;
#147 = EDGE_LOOP ( 'NONE', ( #219 ) ) ;
#148 = COORDINATED_UNIVERSAL_TIME_OFFSET ( 1, 0, .AHEAD. ) ;
#149 = ADVANCED_FACE ( 'NONE', ( #137, #208 ), #91, .T. ) ;
#150 = FACE_OUTER_BOUND ( 'NONE', #26, .T. ) ;
#151 = ADVANCED_FACE ( 'NONE', ( #53, #71 ), #203, .T. ) ;
#152 = CARTESIAN_POINT ( 'NONE',  ( 0.0000000000000000000, 0.0000000000000000000, 0.0000000000000000000 ) ) ;
#153 = AXIS2_PLACEMENT_3D ( 'NONE', #174, #191, #134 ) ;
#154 = DIRECTION ( 'NONE',  ( 2.003723504559010766E-30, -1.000000000000000000, 5.738892206775832841E-16 ) ) ;
#155 = DIRECTION ( 'NONE',  ( 0.0000000000000000000, 1.000000000000000000, 0.0000000000000000000 ) ) ;
#156 = CARTESIAN_POINT ( 'NONE',  ( 3.236417218629406819E-30, 5.319647379247211366E-31, 9.269467325011568661E-16 ) ) ;
#157 = LOCAL_TIME ( 14, 2, 3.000000000000000000, #28 ) ;
#158 = CARTESIAN_POINT ( 'NONE',  ( 3.655366504109375478E-14, 6.008267639858982966E-15, 10.46938576885117733 ) ) ;
#159 = MECHANICAL_CONTEXT ( 'NONE', #37, 'mechanical' ) ;
#160 = ADVANCED_FACE ( 'NONE', ( #196, #63 ), #211, .T. ) ;
#161 = APPROVAL_PERSON_ORGANIZATION ( #108, #175, #217 ) ;
#162 = CARTESIAN_POINT ( 'NONE',  ( 0.0000000000000000000, 0.0000000000000000000, 0.0000000000000000000 ) ) ;
#163 = CARTESIAN_POINT ( 'NONE',  ( 8.728703347107833388E-16, 1.853999999999998982, 0.2499999999999999445 ) ) ;
#164 = ORIENTED_EDGE ( 'NONE', *, *, #92, .T. ) ;
#165 = ORIENTED_EDGE ( 'NONE', *, *, #239, .T. ) ;
#166 = PERSON_AND_ORGANIZATION_ROLE ( 'classification_officer' ) ;
#167 = ORIENTED_EDGE ( 'NONE', *, *, #218, .F. ) ;
#168 = DATE_AND_TIME ( #215, #95 ) ;
#169 = CIRCLE ( 'NONE', #153, 1.853999999999998760 ) ;
#170 = DIRECTION ( 'NONE',  ( -3.664998382197393967E-31, -1.000000000000000000, -1.049697256412017316E-16 ) ) ;
#171 = DIRECTION ( 'NONE',  ( 3.491481338843133355E-15, -1.049697256412017316E-16, 1.000000000000000000 ) ) ;
#172 = DIRECTION ( 'NONE',  ( 3.491481338843133355E-15, 5.738892206775832841E-16, 1.000000000000000000 ) ) ;
#173 = DIRECTION ( 'NONE',  ( 0.0000000000000000000, 1.000000000000000000, 0.0000000000000000000 ) ) ;
#174 = CARTESIAN_POINT ( 'NONE',  ( 8.728703347107869873E-16, 1.434723051693964127E-16, 0.2500000000000010547 ) ) ;
#175 = APPROVAL ( #236, 'UNSPECIFIED' ) ;
#176 = DIRECTION ( 'NONE',  ( -3.491481338843133355E-15, -5.738892206775832841E-16, -1.000000000000000000 ) ) ;
#177 = AXIS2_PLACEMENT_3D ( 'NONE', #97, #34, #36 ) ;
#178 = APPLICATION_PROTOCOL_DEFINITION ( 'international standard', 'config_control_design', 1994, #37 ) ;
#179 =( NAMED_UNIT ( * ) SI_UNIT ( $, .STERADIAN. ) SOLID_ANGLE_UNIT ( ) );
#180 = DIRECTION ( 'NONE',  ( -3.491481338843133355E-15, 1.049697256412017316E-16, -1.000000000000000000 ) ) ;
#181 = APPROVAL_ROLE ( '' ) ;
#182 = ORIENTED_EDGE ( 'NONE', *, *, #102, .T. ) ;
#183 = CC_DESIGN_DATE_AND_TIME_ASSIGNMENT ( #168, #89, ( #114 ) ) ;
#184 = PERSON_AND_ORGANIZATION ( #116, #86 ) ;
#185 = CIRCLE ( 'NONE', #21, 1.499999999999997558 ) ;
#186 = PRODUCT ( '321274', '321274', '', ( #159 ) ) ;
#187 = SHAPE_DEFINITION_REPRESENTATION ( #214, #213 ) ;
#188 = COORDINATED_UNIVERSAL_TIME_OFFSET ( 1, 0, .AHEAD. ) ;
#189 = DIRECTION ( 'NONE',  ( -2.003723504559010766E-30, 1.000000000000000000, -5.738892206775831855E-16 ) ) ;
#190 = CARTESIAN_POINT ( 'NONE',  ( 2.433562493173664138E-13, -7.316389877191761450E-15, 69.70000000000001705 ) ) ;
#191 = DIRECTION ( 'NONE',  ( -3.491481338843133355E-15, -5.738892206775832841E-16, -1.000000000000000000 ) ) ;
#192 = CARTESIAN_POINT ( 'NONE',  ( 3.655366504109374847E-14, 1.853999999999998982, 10.46938576885117556 ) ) ;
#193 = APPLICATION_PROTOCOL_DEFINITION ( 'international standard', 'config_control_design', 1994, #82 ) ;
#194 = CC_DESIGN_PERSON_AND_ORGANIZATION_ASSIGNMENT ( #25, #29, ( #228 ) ) ;
#195 = CARTESIAN_POINT ( 'NONE',  ( 3.655366504109374847E-14, 1.853999999999998982, 10.46938576885117556 ) ) ;
#196 = FACE_BOUND ( 'NONE', #145, .T. ) ;
#197 = CC_DESIGN_SECURITY_CLASSIFICATION ( #129, ( #228 ) ) ;
#198 = ORIENTED_EDGE ( 'NONE', *, *, #22, .F. ) ;
#199 = CALENDAR_DATE ( 2021, 26, 11 ) ;
#200 = AXIS2_PLACEMENT_3D ( 'NONE', #94, #172, #154 ) ;
#201 = PERSON_AND_ORGANIZATION_ROLE ( 'creator' ) ;
#202 = DIRECTION ( 'NONE',  ( -3.491481338843133355E-15, 1.049697256412017316E-16, -1.000000000000000000 ) ) ;
#203 = CYLINDRICAL_SURFACE ( 'NONE', #233, 1.499999999999995337 ) ;
#204 = PLANE ( 'NONE',  #79 ) ;
#205 = CC_DESIGN_DATE_AND_TIME_ASSIGNMENT ( #8, #69, ( #129 ) ) ;
#206 = FACE_OUTER_BOUND ( 'NONE', #50, .T. ) ;
#207 = CIRCLE ( 'NONE', #12, 1.199999999999997513 ) ;
#208 = FACE_OUTER_BOUND ( 'NONE', #85, .T. ) ;
#209 = PERSON_AND_ORGANIZATION_ROLE ( 'creator' ) ;
#210 = VERTEX_POINT ( 'NONE', #42 ) ;
#211 = CONICAL_SURFACE ( 'NONE', #121, 1.853999999999999870, 0.5235987755982932645 ) ;
#212 = DIRECTION ( 'NONE',  ( -2.003723504559011116E-30, 1.000000000000000000, -5.738892206775832841E-16 ) ) ;
#213 = ADVANCED_BREP_SHAPE_REPRESENTATION ( '321274', ( #222, #67, #23 ), #52 ) ;
#214 = PRODUCT_DEFINITION_SHAPE ( 'NONE', 'NONE',  #114 ) ;
#215 = CALENDAR_DATE ( 2021, 26, 11 ) ;
#216 = AXIS2_PLACEMENT_3D ( 'NONE', #117, #171, #170 ) ;
#217 = APPROVAL_ROLE ( '' ) ;
#218 = EDGE_CURVE ( 'NONE', #210, #210, #106, .T. ) ;
#219 = ORIENTED_EDGE ( 'NONE', *, *, #22, .T. ) ;
#220 = EDGE_LOOP ( 'NONE', ( #48 ) ) ;
#221 = APPROVAL_PERSON_ORGANIZATION ( #60, #104, #181 ) ;
#222 = MANIFOLD_SOLID_BREP ( 'Corps-Déplacer/Copier1[1]', #111 ) ;
#223 = PLANE ( 'NONE',  #216 ) ;
#224 = CARTESIAN_POINT ( 'NONE',  ( -1.807482191953019523E-30, 1.709662432702592660, -5.176834748748536548E-16 ) ) ;
#225 = CIRCLE ( 'NONE', #136, 1.709662432702592660 ) ;
#226 = PERSON_AND_ORGANIZATION_ROLE ( 'design_owner' ) ;
#227 = CC_DESIGN_APPROVAL ( #230, ( #228 ) ) ;
#228 = PRODUCT_DEFINITION_FORMATION_WITH_SPECIFIED_SOURCE ( 'ANY', '', #186, .NOT_KNOWN. ) ;
#229 = DIRECTION ( 'NONE',  ( 0.0000000000000000000, 0.0000000000000000000, 1.000000000000000000 ) ) ;
#230 = APPROVAL ( #144, 'UNSPECIFIED' ) ;
#231 = CALENDAR_DATE ( 2021, 26, 11 ) ;
#232 = ORIENTED_EDGE ( 'NONE', *, *, #84, .F. ) ;
#233 = AXIS2_PLACEMENT_3D ( 'NONE', #51, #202, #83 ) ;
#234 = ORIENTED_EDGE ( 'NONE', *, *, #33, .F. ) ;
#235 = APPROVAL_ROLE ( '' ) ;
#236 = APPROVAL_STATUS ( 'not_yet_approved' ) ;
#237 = FACE_OUTER_BOUND ( 'NONE', #147, .T. ) ;
#238 = DIRECTION ( 'NONE',  ( -3.491481338843133355E-15, 1.049697256412017316E-16, -1.000000000000000000 ) ) ;
#239 = EDGE_CURVE ( 'NONE', #143, #143, #225, .T. ) ;
#240 = DIRECTION ( 'NONE',  ( -3.491481338843133355E-15, 1.049697256412017316E-16, -1.000000000000000000 ) ) ;
#241 = CIRCLE ( 'NONE', #58, 1.499999999999992673 ) ;
#242 = DIRECTION ( 'NONE',  ( 0.0000000000000000000, 1.000000000000000000, 0.0000000000000000000 ) ) ;
#243 = DIRECTION ( 'NONE',  ( 0.0000000000000000000, 1.000000000000000000, 0.0000000000000000000 ) ) ;
ENDSEC;
END-ISO-10303-21;
