ISO-10303-21;
HEADER;
FILE_DESCRIPTION (( 'STEP AP203' ),
    '1' );
FILE_NAME ('321273.step',
    '2021-11-26T13:02:02',
    ( '' ),
    ( '' ),
    'SwSTEP 2.0',
    'SolidWorks 2019',
    '' );
FILE_SCHEMA (( 'CONFIG_CONTROL_DESIGN' ));
ENDSEC;

DATA;
#1 = ADVANCED_FACE ( 'NONE', ( #75 ), #5, .T. ) ;
#2 = LOCAL_TIME ( 14, 2, 2.000000000000000000, #15 ) ;
#3 = DIRECTION ( 'NONE',  ( -1.979051862810033034E-30, 1.000000000000000000, -5.863721863090889373E-16 ) ) ;
#4 = DIRECTION ( 'NONE',  ( -3.491481338843133355E-15, 1.049697256412017316E-16, -1.000000000000000000 ) ) ;
#5 = PLANE ( 'NONE',  #51 ) ;
#6 = ORIENTED_EDGE ( 'NONE', *, *, #84, .T. ) ;
#7 = DIRECTION ( 'NONE',  ( 0.0000000000000000000, 1.000000000000000000, 0.0000000000000000000 ) ) ;
#8 = CARTESIAN_POINT ( 'NONE',  ( 3.658390215645652351E-14, 1.848999999999998645, 10.47804602288901954 ) ) ;
#9 = CIRCLE ( 'NONE', #187, 1.848999999999992649 ) ;
#10 = FACE_BOUND ( 'NONE', #41, .T. ) ;
#11 = FACE_OUTER_BOUND ( 'NONE', #22, .T. ) ;
#12 = APPROVAL_STATUS ( 'not_yet_approved' ) ;
#13 = AXIS2_PLACEMENT_3D ( 'NONE', #213, #143, #64 ) ;
#14 = SHAPE_DEFINITION_REPRESENTATION ( #211, #203 ) ;
#15 = COORDINATED_UNIVERSAL_TIME_OFFSET ( 1, 0, .AHEAD. ) ;
#16 = CC_DESIGN_DATE_AND_TIME_ASSIGNMENT ( #32, #123, ( #168 ) ) ;
#17 = PERSON_AND_ORGANIZATION_ROLE ( 'design_owner' ) ;
#18 = FACE_BOUND ( 'NONE', #138, .T. ) ;
#19 = ORIENTED_EDGE ( 'NONE', *, *, #63, .F. ) ;
#20 = FACE_OUTER_BOUND ( 'NONE', #228, .T. ) ;
#21 = APPROVAL ( #68, 'UNSPECIFIED' ) ;
#22 = EDGE_LOOP ( 'NONE', ( #148 ) ) ;
#23 = ORIENTED_EDGE ( 'NONE', *, *, #66, .T. ) ;
#24 = EDGE_CURVE ( 'NONE', #141, #141, #191, .T. ) ;
#25 = CARTESIAN_POINT ( 'NONE',  ( 3.658390215645652982E-14, 6.006146489381531300E-15, 10.47804602288902132 ) ) ;
#26 = CARTESIAN_POINT ( 'NONE',  ( -1.892735826383161356E-31, 1.704662432702592545, -5.421010862427522170E-17 ) ) ;
#27 =( NAMED_UNIT ( * ) PLANE_ANGLE_UNIT ( ) SI_UNIT ( $, .RADIAN. ) );
#28 = CARTESIAN_POINT ( 'NONE',  ( 3.658390215645652351E-14, -1.099877616278545397E-15, 10.47804602288901954 ) ) ;
#29 = COORDINATED_UNIVERSAL_TIME_OFFSET ( 1, 0, .AHEAD. ) ;
#30 = AXIS2_PLACEMENT_3D ( 'NONE', #25, #118, #175 ) ;
#31 = APPROVAL_DATE_TIME ( #146, #152 ) ;
#32 = DATE_AND_TIME ( #71, #74 ) ;
#33 = ORGANIZATION ( 'UNSPECIFIED', 'UNSPECIFIED', '' ) ;
#34 = APPROVAL_STATUS ( 'not_yet_approved' ) ;
#35 = ORIENTED_EDGE ( 'NONE', *, *, #24, .T. ) ;
#36 = EDGE_LOOP ( 'NONE', ( #227 ) ) ;
#37 = ADVANCED_FACE ( 'NONE', ( #54, #20 ), #174, .T. ) ;
#38 = DIRECTION ( 'NONE',  ( 0.0000000000000000000, 1.000000000000000000, 0.0000000000000000000 ) ) ;
#39 = EDGE_CURVE ( 'NONE', #196, #196, #238, .T. ) ;
#40 = DIRECTION ( 'NONE',  ( -3.491481338843133355E-15, 1.049697256412017316E-16, -1.000000000000000000 ) ) ;
#41 = EDGE_LOOP ( 'NONE', ( #23 ) ) ;
#42 = PRODUCT_RELATED_PRODUCT_CATEGORY ( 'detail', '', ( #128 ) ) ;
#43 = DIRECTION ( 'NONE',  ( 3.664998382197393967E-31, 1.000000000000000000, 1.049697256412017316E-16 ) ) ;
#44 = PRODUCT_DEFINITION_FORMATION_WITH_SPECIFIED_SOURCE ( 'ANY', '', #128, .NOT_KNOWN. ) ;
#45 = CARTESIAN_POINT ( 'NONE',  ( 3.869445280877825814E-14, 1.499999999999991562, 11.08253175473057794 ) ) ;
#46 = CIRCLE ( 'NONE', #214, 1.499999999999992673 ) ;
#47 = VERTEX_POINT ( 'NONE', #45 ) ;
#48 = DATE_AND_TIME ( #124, #103 ) ;
#49 = ADVANCED_FACE ( 'NONE', ( #18, #92 ), #132, .T. ) ;
#50 = APPROVAL_ROLE ( '' ) ;
#51 = AXIS2_PLACEMENT_3D ( 'NONE', #209, #194, #79 ) ;
#52 = LOCAL_TIME ( 14, 2, 2.000000000000000000, #204 ) ;
#53 = DESIGN_CONTEXT ( 'detailed design', #164, 'design' ) ;
#54 = FACE_OUTER_BOUND ( 'NONE', #155, .T. ) ;
#55 = ORIENTED_EDGE ( 'NONE', *, *, #39, .T. ) ;
#56 = EDGE_CURVE ( 'NONE', #140, #140, #9, .T. ) ;
#57 = DIRECTION ( 'NONE',  ( -3.491481338843133355E-15, 1.049697256412017316E-16, -1.000000000000000000 ) ) ;
#58 = CARTESIAN_POINT ( 'NONE',  ( 3.658390215645652982E-14, 6.006146489381532089E-15, 10.47804602288902132 ) ) ;
#59 = CARTESIAN_POINT ( 'NONE',  ( 0.0000000000000000000, 0.0000000000000000000, 0.0000000000000000000 ) ) ;
#60 = VERTEX_POINT ( 'NONE', #26 ) ;
#61 = APPROVAL_PERSON_ORGANIZATION ( #180, #152, #243 ) ;
#62 = CARTESIAN_POINT ( 'NONE',  ( 2.433562493173664138E-13, 1.499999999999990230, 69.70000000000001705 ) ) ;
#63 = EDGE_CURVE ( 'NONE', #158, #158, #192, .T. ) ;
#64 = DIRECTION ( 'NONE',  ( 2.001360591490496672E-30, -1.000000000000000000, 5.732124554770287762E-16 ) ) ;
#65 = DATE_AND_TIME ( #126, #125 ) ;
#66 = EDGE_CURVE ( 'NONE', #47, #47, #46, .T. ) ;
#67 = MANIFOLD_SOLID_BREP ( 'Corps-Déplacer/Copier1[1]', #229 ) ;
#68 = APPROVAL_STATUS ( 'not_yet_approved' ) ;
#69 = ORIENTED_EDGE ( 'NONE', *, *, #231, .T. ) ;
#70 = AXIS2_PLACEMENT_3D ( 'NONE', #210, #40, #115 ) ;
#71 = CALENDAR_DATE ( 2021, 26, 11 ) ;
#72 = PERSON_AND_ORGANIZATION ( #216, #33 ) ;
#73 = CARTESIAN_POINT ( 'NONE',  ( 0.0000000000000000000, 0.0000000000000000000, 0.0000000000000000000 ) ) ;
#74 = LOCAL_TIME ( 14, 2, 2.000000000000000000, #242 ) ;
#75 = FACE_OUTER_BOUND ( 'NONE', #226, .T. ) ;
#76 = EDGE_LOOP ( 'NONE', ( #116 ) ) ;
#77 = AXIS2_PLACEMENT_3D ( 'NONE', #151, #167, #3 ) ;
#78 = AXIS2_PLACEMENT_3D ( 'NONE', #59, #81, #198 ) ;
#79 = DIRECTION ( 'NONE',  ( -2.001360591490496322E-30, 1.000000000000000000, -5.732124554770287762E-16 ) ) ;
#80 = CARTESIAN_POINT ( 'NONE',  ( 2.444036937190193601E-13, -7.347880794884121511E-15, 70.00000000000000000 ) ) ;
#81 = DIRECTION ( 'NONE',  ( -3.491481338843133355E-15, -5.732124554770287762E-16, -1.000000000000000000 ) ) ;
#82 =( NAMED_UNIT ( * ) SI_UNIT ( $, .STERADIAN. ) SOLID_ANGLE_UNIT ( ) );
#83 = CONICAL_SURFACE ( 'NONE', #13, 1.704662432702592545, 0.5235987755982970393 ) ;
#84 = EDGE_CURVE ( 'NONE', #235, #235, #107, .T. ) ;
#85 = FACE_OUTER_BOUND ( 'NONE', #36, .T. ) ;
#86 = ADVANCED_FACE ( 'NONE', ( #171 ), #178, .T. ) ;
#87 = DATE_AND_TIME ( #165, #2 ) ;
#88 = APPROVAL_ROLE ( '' ) ;
#89 = PERSON_AND_ORGANIZATION ( #216, #33 ) ;
#90 = COORDINATED_UNIVERSAL_TIME_OFFSET ( 1, 0, .AHEAD. ) ;
#91 = ADVANCED_FACE ( 'NONE', ( #122, #160 ), #102, .T. ) ;
#92 = FACE_OUTER_BOUND ( 'NONE', #189, .T. ) ;
#93 =( GEOMETRIC_REPRESENTATION_CONTEXT ( 3 ) GLOBAL_UNCERTAINTY_ASSIGNED_CONTEXT ( ( #110 ) ) GLOBAL_UNIT_ASSIGNED_CONTEXT ( ( #215, #27, #82 ) ) REPRESENTATION_CONTEXT ( 'NONE', 'WORKASPACE' ) );
#94 = CARTESIAN_POINT ( 'NONE',  ( 2.444036937190193601E-13, -7.347880794884121511E-15, 70.00000000000000000 ) ) ;
#95 = EDGE_LOOP ( 'NONE', ( #212 ) ) ;
#96 = ORIENTED_EDGE ( 'NONE', *, *, #56, .F. ) ;
#97 = AXIS2_PLACEMENT_3D ( 'NONE', #170, #114, #38 ) ;
#98 = DIRECTION ( 'NONE',  ( -3.491481338843133355E-15, 1.049697256412017316E-16, -1.000000000000000000 ) ) ;
#99 = CARTESIAN_POINT ( 'NONE',  ( 3.658390215645652982E-14, 1.848999999999998645, 10.47804602288902132 ) ) ;
#100 = CC_DESIGN_PERSON_AND_ORGANIZATION_ASSIGNMENT ( #89, #17, ( #128 ) ) ;
#101 = FACE_OUTER_BOUND ( 'NONE', #208, .T. ) ;
#102 = CYLINDRICAL_SURFACE ( 'NONE', #78, 1.848999999999995536 ) ;
#103 = LOCAL_TIME ( 14, 2, 2.000000000000000000, #29 ) ;
#104 = PLANE ( 'NONE',  #117 ) ;
#105 = DIRECTION ( 'NONE',  ( -3.491481338843133355E-15, 1.049697256412017316E-16, -1.000000000000000000 ) ) ;
#106 = CALENDAR_DATE ( 2021, 26, 11 ) ;
#107 = CIRCLE ( 'NONE', #70, 1.848999999999999755 ) ;
#108 = DATE_TIME_ROLE ( 'creation_date' ) ;
#109 = ADVANCED_FACE ( 'NONE', ( #101 ), #104, .T. ) ;
#110 = UNCERTAINTY_MEASURE_WITH_UNIT (LENGTH_MEASURE( 1.000000000000000082E-05 ), #215, 'distance_accuracy_value', 'NONE');
#111 = DIRECTION ( 'NONE',  ( -3.491481338843133355E-15, 1.049697256412017316E-16, -1.000000000000000000 ) ) ;
#112 = DIRECTION ( 'NONE',  ( -3.333139979469539683E-30, 1.000000000000000000, -9.381954980945451002E-16 ) ) ;
#113 = AXIS2_PLACEMENT_3D ( 'NONE', #28, #105, #7 ) ;
#114 = DIRECTION ( 'NONE',  ( -3.491481338843133355E-15, 1.049697256412017316E-16, -1.000000000000000000 ) ) ;
#115 = DIRECTION ( 'NONE',  ( 0.0000000000000000000, 1.000000000000000000, 0.0000000000000000000 ) ) ;
#116 = ORIENTED_EDGE ( 'NONE', *, *, #56, .T. ) ;
#117 = AXIS2_PLACEMENT_3D ( 'NONE', #99, #139, #43 ) ;
#118 = DIRECTION ( 'NONE',  ( 3.491481338843133355E-15, 5.732124554770287762E-16, 1.000000000000000000 ) ) ;
#119 = DIRECTION ( 'NONE',  ( -3.664998382197393967E-31, -1.000000000000000000, -1.049697256412017316E-16 ) ) ;
#120 = APPLICATION_PROTOCOL_DEFINITION ( 'international standard', 'config_control_design', 1994, #129 ) ;
#121 = CARTESIAN_POINT ( 'NONE',  ( 3.658390215645652351E-14, 1.848999999999998645, 10.47804602288901954 ) ) ;
#122 = FACE_OUTER_BOUND ( 'NONE', #76, .T. ) ;
#123 = DATE_TIME_ROLE ( 'classification_date' ) ;
#124 = CALENDAR_DATE ( 2021, 26, 11 ) ;
#125 = LOCAL_TIME ( 14, 2, 2.000000000000000000, #90 ) ;
#126 = CALENDAR_DATE ( 2021, 26, 11 ) ;
#127 = PERSON_AND_ORGANIZATION ( #216, #33 ) ;
#128 = PRODUCT ( '321273', '321273', '', ( #145 ) ) ;
#129 = APPLICATION_CONTEXT ( 'configuration controlled 3d designs of mechanical parts and assemblies' ) ;
#130 = PERSON_AND_ORGANIZATION_ROLE ( 'creator' ) ;
#131 = ADVANCED_FACE ( 'NONE', ( #11, #161 ), #83, .T. ) ;
#132 = CONICAL_SURFACE ( 'NONE', #97, 1.499999999999997558, 0.7853981633974573828 ) ;
#133 = DIRECTION ( 'NONE',  ( 3.664998382197393967E-31, 1.000000000000000000, 1.049697256412017316E-16 ) ) ;
#134 = EDGE_LOOP ( 'NONE', ( #232 ) ) ;
#135 = CARTESIAN_POINT ( 'NONE',  ( 2.433562493173664138E-13, -7.316389877191761450E-15, 69.70000000000001705 ) ) ;
#136 = CC_DESIGN_APPROVAL ( #152, ( #168 ) ) ;
#137 = DIRECTION ( 'NONE',  ( -3.491481338843133355E-15, -5.732124554770287762E-16, -1.000000000000000000 ) ) ;
#138 = EDGE_LOOP ( 'NONE', ( #55 ) ) ;
#139 = DIRECTION ( 'NONE',  ( -3.491481338843133355E-15, 1.049697256412017316E-16, -1.000000000000000000 ) ) ;
#140 = VERTEX_POINT ( 'NONE', #8 ) ;
#141 = VERTEX_POINT ( 'NONE', #62 ) ;
#142 = AXIS2_PLACEMENT_3D ( 'NONE', #135, #98, #169 ) ;
#143 = DIRECTION ( 'NONE',  ( 3.491481338843133355E-15, 5.732124554770287762E-16, 1.000000000000000000 ) ) ;
#144 = DIRECTION ( 'NONE',  ( 1.000000000000000000, 0.0000000000000000000, 0.0000000000000000000 ) ) ;
#145 = MECHANICAL_CONTEXT ( 'NONE', #129, 'mechanical' ) ;
#146 = DATE_AND_TIME ( #106, #52 ) ;
#147 = DIRECTION ( 'NONE',  ( 0.0000000000000000000, 0.0000000000000000000, 1.000000000000000000 ) ) ;
#148 = ORIENTED_EDGE ( 'NONE', *, *, #63, .T. ) ;
#149 = AXIS2_PLACEMENT_3D ( 'NONE', #73, #111, #133 ) ;
#150 = CARTESIAN_POINT ( 'NONE',  ( 3.869445280877825814E-14, -1.163330317703974832E-15, 11.08253175473057794 ) ) ;
#151 = CARTESIAN_POINT ( 'NONE',  ( 8.728703347107869873E-16, 1.433031138692577857E-16, 0.2500000000000010547 ) ) ;
#152 = APPROVAL ( #12, 'UNSPECIFIED' ) ;
#153 = EDGE_LOOP ( 'NONE', ( #19 ) ) ;
#154 = AXIS2_PLACEMENT_3D ( 'NONE', #237, #219, #157 ) ;
#155 = EDGE_LOOP ( 'NONE', ( #35 ) ) ;
#156 = CC_DESIGN_PERSON_AND_ORGANIZATION_ASSIGNMENT ( #239, #202, ( #44 ) ) ;
#157 = DIRECTION ( 'NONE',  ( -2.001360591490496322E-30, 1.000000000000000000, -5.732124554770287762E-16 ) ) ;
#158 = VERTEX_POINT ( 'NONE', #217 ) ;
#159 = CC_DESIGN_APPROVAL ( #21, ( #241 ) ) ;
#160 = FACE_OUTER_BOUND ( 'NONE', #153, .T. ) ;
#161 = FACE_BOUND ( 'NONE', #134, .T. ) ;
#162 = APPROVAL_PERSON_ORGANIZATION ( #127, #21, #88 ) ;
#163 = APPROVAL_DATE_TIME ( #65, #188 ) ;
#164 = APPLICATION_CONTEXT ( 'configuration controlled 3d designs of mechanical parts and assemblies' ) ;
#165 = CALENDAR_DATE ( 2021, 26, 11 ) ;
#166 = PERSON_AND_ORGANIZATION ( #216, #33 ) ;
#167 = DIRECTION ( 'NONE',  ( -3.491481338843133355E-15, -5.732124554770287762E-16, -1.000000000000000000 ) ) ;
#168 = SECURITY_CLASSIFICATION ( '', '', #222 ) ;
#169 = DIRECTION ( 'NONE',  ( 0.0000000000000000000, 1.000000000000000000, 0.0000000000000000000 ) ) ;
#170 = CARTESIAN_POINT ( 'NONE',  ( 2.433562493173664138E-13, -7.316389877191761450E-15, 69.70000000000001705 ) ) ;
#171 = FACE_OUTER_BOUND ( 'NONE', #95, .T. ) ;
#172 = AXIS2_PLACEMENT_3D ( 'NONE', #200, #147, #144 ) ;
#173 = CC_DESIGN_DATE_AND_TIME_ASSIGNMENT ( #48, #108, ( #241 ) ) ;
#174 = CYLINDRICAL_SURFACE ( 'NONE', #149, 1.499999999999995337 ) ;
#175 = DIRECTION ( 'NONE',  ( 2.001360591490496322E-30, -1.000000000000000000, 5.732124554770287762E-16 ) ) ;
#176 = CARTESIAN_POINT ( 'NONE',  ( 2.444036937190193601E-13, 1.199999999999990186, 70.00000000000000000 ) ) ;
#177 = AXIS2_PLACEMENT_3D ( 'NONE', #94, #4, #190 ) ;
#178 = PLANE ( 'NONE',  #230 ) ;
#179 = FACE_OUTER_BOUND ( 'NONE', #224, .T. ) ;
#180 = PERSON_AND_ORGANIZATION ( #216, #33 ) ;
#181 = CC_DESIGN_PERSON_AND_ORGANIZATION_ASSIGNMENT ( #184, #223, ( #168 ) ) ;
#182 = CC_DESIGN_APPROVAL ( #188, ( #44 ) ) ;
#183 = APPROVAL_DATE_TIME ( #87, #21 ) ;
#184 = PERSON_AND_ORGANIZATION ( #216, #33 ) ;
#185 = CLOSED_SHELL ( 'NONE', ( #225, #91, #131, #1 ) ) ;
#186 = CONICAL_SURFACE ( 'NONE', #113, 1.848999999999999755, 0.5235987755982934866 ) ;
#187 = AXIS2_PLACEMENT_3D ( 'NONE', #58, #137, #112 ) ;
#188 = APPROVAL ( #34, 'UNSPECIFIED' ) ;
#189 = EDGE_LOOP ( 'NONE', ( #207 ) ) ;
#190 = DIRECTION ( 'NONE',  ( 0.0000000000000000000, 1.000000000000000000, 0.0000000000000000000 ) ) ;
#191 = CIRCLE ( 'NONE', #142, 1.499999999999997558 ) ;
#192 = CIRCLE ( 'NONE', #77, 1.848999999999998423 ) ;
#193 = DIRECTION ( 'NONE',  ( 0.0000000000000000000, 1.000000000000000000, 0.0000000000000000000 ) ) ;
#194 = DIRECTION ( 'NONE',  ( -3.491481338843133355E-15, -5.732124554770287762E-16, -1.000000000000000000 ) ) ;
#195 = ORIENTED_EDGE ( 'NONE', *, *, #66, .F. ) ;
#196 = VERTEX_POINT ( 'NONE', #176 ) ;
#197 = CC_DESIGN_PERSON_AND_ORGANIZATION_ASSIGNMENT ( #166, #130, ( #241 ) ) ;
#198 = DIRECTION ( 'NONE',  ( -2.001360591490496322E-30, 1.000000000000000000, -5.732124554770287762E-16 ) ) ;
#199 = ADVANCED_FACE ( 'NONE', ( #10, #85 ), #186, .T. ) ;
#200 = CARTESIAN_POINT ( 'NONE',  ( 0.0000000000000000000, 0.0000000000000000000, 0.0000000000000000000 ) ) ;
#201 = CC_DESIGN_SECURITY_CLASSIFICATION ( #168, ( #44 ) ) ;
#202 = PERSON_AND_ORGANIZATION_ROLE ( 'creator' ) ;
#203 = ADVANCED_BREP_SHAPE_REPRESENTATION ( '321273', ( #67, #233, #172 ), #93 ) ;
#204 = COORDINATED_UNIVERSAL_TIME_OFFSET ( 1, 0, .AHEAD. ) ;
#205 = PERSON_AND_ORGANIZATION_ROLE ( 'design_supplier' ) ;
#206 = APPROVAL_PERSON_ORGANIZATION ( #240, #188, #50 ) ;
#207 = ORIENTED_EDGE ( 'NONE', *, *, #24, .F. ) ;
#208 = EDGE_LOOP ( 'NONE', ( #6 ) ) ;
#209 = CARTESIAN_POINT ( 'NONE',  ( -1.800458898621802606E-30, 1.704662432702592545, -5.156719237165868146E-16 ) ) ;
#210 = CARTESIAN_POINT ( 'NONE',  ( 3.658390215645652351E-14, -1.099877616278545397E-15, 10.47804602288901954 ) ) ;
#211 = PRODUCT_DEFINITION_SHAPE ( 'NONE', 'NONE',  #241 ) ;
#212 = ORIENTED_EDGE ( 'NONE', *, *, #39, .F. ) ;
#213 = CARTESIAN_POINT ( 'NONE',  ( 3.222370631966972984E-30, 5.290313202759010747E-31, 9.229236301846231858E-16 ) ) ;
#214 = AXIS2_PLACEMENT_3D ( 'NONE', #150, #57, #193 ) ;
#215 =( LENGTH_UNIT ( ) NAMED_UNIT ( * ) SI_UNIT ( .MILLI., .METRE. ) );
#216 = PERSON ( 'UNSPECIFIED', 'UNSPECIFIED', 'UNSPECIFIED', ('UNSPECIFIED'), ('UNSPECIFIED'), ('UNSPECIFIED') ) ;
#217 = CARTESIAN_POINT ( 'NONE',  ( 8.728703347107833388E-16, 1.848999999999998645, 0.2499999999999999445 ) ) ;
#218 = CIRCLE ( 'NONE', #154, 1.704662432702592545 ) ;
#219 = DIRECTION ( 'NONE',  ( -3.491481338843133355E-15, -5.732124554770287762E-16, -1.000000000000000000 ) ) ;
#220 = CC_DESIGN_PERSON_AND_ORGANIZATION_ASSIGNMENT ( #72, #205, ( #44 ) ) ;
#221 = APPLICATION_PROTOCOL_DEFINITION ( 'international standard', 'config_control_design', 1994, #164 ) ;
#222 = SECURITY_CLASSIFICATION_LEVEL ( 'unclassified' ) ;
#223 = PERSON_AND_ORGANIZATION_ROLE ( 'classification_officer' ) ;
#224 = EDGE_LOOP ( 'NONE', ( #96 ) ) ;
#225 = ADVANCED_FACE ( 'NONE', ( #179 ), #236, .T. ) ;
#226 = EDGE_LOOP ( 'NONE', ( #69 ) ) ;
#227 = ORIENTED_EDGE ( 'NONE', *, *, #84, .F. ) ;
#228 = EDGE_LOOP ( 'NONE', ( #195 ) ) ;
#229 = CLOSED_SHELL ( 'NONE', ( #86, #49, #37, #199, #109 ) ) ;
#230 = AXIS2_PLACEMENT_3D ( 'NONE', #80, #234, #119 ) ;
#231 = EDGE_CURVE ( 'NONE', #60, #60, #218, .T. ) ;
#232 = ORIENTED_EDGE ( 'NONE', *, *, #231, .F. ) ;
#233 = MANIFOLD_SOLID_BREP ( 'Corps-Déplacer/Copier1[2]', #185 ) ;
#234 = DIRECTION ( 'NONE',  ( 3.491481338843133355E-15, -1.049697256412017316E-16, 1.000000000000000000 ) ) ;
#235 = VERTEX_POINT ( 'NONE', #121 ) ;
#236 = PLANE ( 'NONE',  #30 ) ;
#237 = CARTESIAN_POINT ( 'NONE',  ( 3.222370631966972984E-30, 5.290313202759010747E-31, 9.229236301846231858E-16 ) ) ;
#238 = CIRCLE ( 'NONE', #177, 1.199999999999997513 ) ;
#239 = PERSON_AND_ORGANIZATION ( #216, #33 ) ;
#240 = PERSON_AND_ORGANIZATION ( #216, #33 ) ;
#241 = PRODUCT_DEFINITION ( 'UNKNOWN', '', #44, #53 ) ;
#242 = COORDINATED_UNIVERSAL_TIME_OFFSET ( 1, 0, .AHEAD. ) ;
#243 = APPROVAL_ROLE ( '' ) ;
ENDSEC;
END-ISO-10303-21;
