ISO-10303-21;
HEADER;
FILE_DESCRIPTION (( 'STEP AP203' ),
    '1' );
FILE_NAME ('321272.step',
    '2021-11-26T13:02:02',
    ( '' ),
    ( '' ),
    'SwSTEP 2.0',
    'SolidWorks 2019',
    '' );
FILE_SCHEMA (( 'CONFIG_CONTROL_DESIGN' ));
ENDSEC;

DATA;
#1 = CC_DESIGN_DATE_AND_TIME_ASSIGNMENT ( #33, #131, ( #173 ) ) ;
#2 = PRODUCT_RELATED_PRODUCT_CATEGORY ( 'detail', '', ( #21 ) ) ;
#3 = AXIS2_PLACEMENT_3D ( 'NONE', #128, #36, #68 ) ;
#4 = EDGE_LOOP ( 'NONE', ( #213 ) ) ;
#5 = CARTESIAN_POINT ( 'NONE',  ( -1.892735826383154569E-31, 1.699662432702592652, -5.421010862427522170E-17 ) ) ;
#6 = EDGE_LOOP ( 'NONE', ( #226 ) ) ;
#7 = CIRCLE ( 'NONE', #59, 1.499999999999997558 ) ;
#8 = EDGE_LOOP ( 'NONE', ( #58 ) ) ;
#9 = PERSON ( 'UNSPECIFIED', 'UNSPECIFIED', 'UNSPECIFIED', ('UNSPECIFIED'), ('UNSPECIFIED'), ('UNSPECIFIED') ) ;
#10 = CARTESIAN_POINT ( 'NONE',  ( 2.444036937190193601E-13, -7.347880794884121511E-15, 70.00000000000000000 ) ) ;
#11 = LOCAL_TIME ( 14, 2, 2.000000000000000000, #149 ) ;
#12 = APPLICATION_PROTOCOL_DEFINITION ( 'international standard', 'config_control_design', 1994, #19 ) ;
#13 = DIRECTION ( 'NONE',  ( -3.491481338843133355E-15, -5.725368080647311388E-16, -1.000000000000000000 ) ) ;
#14 = APPROVAL_DATE_TIME ( #127, #211 ) ;
#15 = DIRECTION ( 'NONE',  ( -1.984418055496611352E-30, 1.000000000000000000, -5.585640259551139460E-16 ) ) ;
#16 = PERSON_AND_ORGANIZATION ( #9, #96 ) ;
#17 = APPROVAL_PERSON_ORGANIZATION ( #130, #110, #55 ) ;
#18 = UNCERTAINTY_MEASURE_WITH_UNIT (LENGTH_MEASURE( 1.000000000000000082E-05 ), #48, 'distance_accuracy_value', 'NONE');
#19 = APPLICATION_CONTEXT ( 'configuration controlled 3d designs of mechanical parts and assemblies' ) ;
#20 = APPROVAL_DATE_TIME ( #188, #110 ) ;
#21 = PRODUCT ( '321272', '321272', '', ( #182 ) ) ;
#22 = EDGE_CURVE ( 'NONE', #198, #198, #156, .T. ) ;
#23 = DIRECTION ( 'NONE',  ( 0.0000000000000000000, 1.000000000000000000, 0.0000000000000000000 ) ) ;
#24 = EDGE_LOOP ( 'NONE', ( #155 ) ) ;
#25 = VERTEX_POINT ( 'NONE', #5 ) ;
#26 =( GEOMETRIC_REPRESENTATION_CONTEXT ( 3 ) GLOBAL_UNCERTAINTY_ASSIGNED_CONTEXT ( ( #18 ) ) GLOBAL_UNIT_ASSIGNED_CONTEXT ( ( #48, #31, #64 ) ) REPRESENTATION_CONTEXT ( 'NONE', 'WORKASPACE' ) );
#27 = VERTEX_POINT ( 'NONE', #121 ) ;
#28 = EDGE_LOOP ( 'NONE', ( #215 ) ) ;
#29 = CARTESIAN_POINT ( 'NONE',  ( 8.728703347107831416E-16, 1.843999999999998751, 0.2499999999999999445 ) ) ;
#30 = DIRECTION ( 'NONE',  ( 0.0000000000000000000, 1.000000000000000000, 0.0000000000000000000 ) ) ;
#31 =( NAMED_UNIT ( * ) PLANE_ANGLE_UNIT ( ) SI_UNIT ( $, .RADIAN. ) );
#32 = FACE_BOUND ( 'NONE', #63, .T. ) ;
#33 = DATE_AND_TIME ( #118, #101 ) ;
#34 = CARTESIAN_POINT ( 'NONE',  ( 3.208354307770416471E-30, 5.261093376258005114E-31, 9.189091953828031591E-16 ) ) ;
#35 = DESIGN_CONTEXT ( 'detailed design', #19, 'design' ) ;
#36 = DIRECTION ( 'NONE',  ( -3.491481338843133355E-15, -5.725368080647311388E-16, -1.000000000000000000 ) ) ;
#37 = CARTESIAN_POINT ( 'NONE',  ( 0.0000000000000000000, 0.0000000000000000000, 0.0000000000000000000 ) ) ;
#38 = CC_DESIGN_PERSON_AND_ORGANIZATION_ASSIGNMENT ( #243, #144, ( #94 ) ) ;
#39 = APPROVAL_ROLE ( '' ) ;
#40 = CONICAL_SURFACE ( 'NONE', #132, 1.499999999999997558, 0.7853981633974573828 ) ;
#41 = EDGE_LOOP ( 'NONE', ( #195 ) ) ;
#42 = CARTESIAN_POINT ( 'NONE',  ( -1.793450736523524349E-30, 1.699662432702592652, -5.136647063156768012E-16 ) ) ;
#43 = ORIENTED_EDGE ( 'NONE', *, *, #124, .T. ) ;
#44 = APPROVAL ( #186, 'UNSPECIFIED' ) ;
#45 = DIRECTION ( 'NONE',  ( -3.491481338843133355E-15, 1.049697256412017316E-16, -1.000000000000000000 ) ) ;
#46 = AXIS2_PLACEMENT_3D ( 'NONE', #34, #145, #52 ) ;
#47 = DIRECTION ( 'NONE',  ( 3.664998382197393967E-31, 1.000000000000000000, 1.049697256412017316E-16 ) ) ;
#48 =( LENGTH_UNIT ( ) NAMED_UNIT ( * ) SI_UNIT ( .MILLI., .METRE. ) );
#49 = FACE_BOUND ( 'NONE', #6, .T. ) ;
#50 = DATE_AND_TIME ( #53, #177 ) ;
#51 = DIRECTION ( 'NONE',  ( 0.0000000000000000000, 1.000000000000000000, 0.0000000000000000000 ) ) ;
#52 = DIRECTION ( 'NONE',  ( 1.999001581158821437E-30, -1.000000000000000000, 5.725368080647312374E-16 ) ) ;
#53 = CALENDAR_DATE ( 2021, 26, 11 ) ;
#54 = APPROVAL_DATE_TIME ( #97, #44 ) ;
#55 = APPROVAL_ROLE ( '' ) ;
#56 = CC_DESIGN_DATE_AND_TIME_ASSIGNMENT ( #50, #69, ( #94 ) ) ;
#57 = AXIS2_PLACEMENT_3D ( 'NONE', #37, #170, #152 ) ;
#58 = ORIENTED_EDGE ( 'NONE', *, *, #76, .F. ) ;
#59 = AXIS2_PLACEMENT_3D ( 'NONE', #86, #196, #83 ) ;
#60 = LOCAL_TIME ( 14, 2, 2.000000000000000000, #168 ) ;
#61 = ORIENTED_EDGE ( 'NONE', *, *, #22, .T. ) ;
#62 = ADVANCED_FACE ( 'NONE', ( #70, #49 ), #77, .T. ) ;
#63 = EDGE_LOOP ( 'NONE', ( #219 ) ) ;
#64 =( NAMED_UNIT ( * ) SI_UNIT ( $, .STERADIAN. ) SOLID_ANGLE_UNIT ( ) );
#65 = CARTESIAN_POINT ( 'NONE',  ( 3.869445280877825814E-14, 1.499999999999991562, 11.08253175473057794 ) ) ;
#66 = CIRCLE ( 'NONE', #153, 1.843999999999998529 ) ;
#67 = CARTESIAN_POINT ( 'NONE',  ( 3.661413927181929225E-14, 6.004025338904085156E-15, 10.48670627692686175 ) ) ;
#68 = DIRECTION ( 'NONE',  ( -3.342177777678513544E-30, 1.000000000000000000, -9.407394121349316263E-16 ) ) ;
#69 = DATE_TIME_ROLE ( 'creation_date' ) ;
#70 = FACE_OUTER_BOUND ( 'NONE', #235, .T. ) ;
#71 = FACE_OUTER_BOUND ( 'NONE', #179, .T. ) ;
#72 = CALENDAR_DATE ( 2021, 26, 11 ) ;
#73 = APPROVAL_ROLE ( '' ) ;
#74 = PERSON_AND_ORGANIZATION_ROLE ( 'classification_officer' ) ;
#75 = AXIS2_PLACEMENT_3D ( 'NONE', #10, #242, #199 ) ;
#76 = EDGE_CURVE ( 'NONE', #141, #141, #217, .T. ) ;
#77 = CONICAL_SURFACE ( 'NONE', #46, 1.699662432702592652, 0.5235987755982971503 ) ;
#78 = APPROVAL_PERSON_ORGANIZATION ( #91, #211, #39 ) ;
#79 = ADVANCED_FACE ( 'NONE', ( #224, #115 ), #165, .T. ) ;
#80 = EDGE_LOOP ( 'NONE', ( #123 ) ) ;
#81 = DIRECTION ( 'NONE',  ( -3.491481338843133355E-15, 1.049697256412017316E-16, -1.000000000000000000 ) ) ;
#82 = CC_DESIGN_PERSON_AND_ORGANIZATION_ASSIGNMENT ( #203, #74, ( #173 ) ) ;
#83 = DIRECTION ( 'NONE',  ( 0.0000000000000000000, 1.000000000000000000, 0.0000000000000000000 ) ) ;
#84 = CLOSED_SHELL ( 'NONE', ( #166, #79, #62, #209 ) ) ;
#85 = CARTESIAN_POINT ( 'NONE',  ( 3.661413927181929856E-14, -1.100786680768880924E-15, 10.48670627692686352 ) ) ;
#86 = CARTESIAN_POINT ( 'NONE',  ( 2.433562493173664138E-13, -7.316389877191761450E-15, 69.70000000000001705 ) ) ;
#87 = DIRECTION ( 'NONE',  ( 0.0000000000000000000, 1.000000000000000000, 0.0000000000000000000 ) ) ;
#88 = CARTESIAN_POINT ( 'NONE',  ( 2.433562493173664138E-13, -7.316389877191761450E-15, 69.70000000000001705 ) ) ;
#89 = CIRCLE ( 'NONE', #100, 1.199999999999997513 ) ;
#90 = CC_DESIGN_APPROVAL ( #44, ( #94 ) ) ;
#91 = PERSON_AND_ORGANIZATION ( #9, #96 ) ;
#92 = DIRECTION ( 'NONE',  ( -3.491481338843133355E-15, 1.049697256412017316E-16, -1.000000000000000000 ) ) ;
#93 = PERSON_AND_ORGANIZATION_ROLE ( 'creator' ) ;
#94 = PRODUCT_DEFINITION ( 'UNKNOWN', '', #134, #35 ) ;
#95 = PERSON_AND_ORGANIZATION ( #9, #96 ) ;
#96 = ORGANIZATION ( 'UNSPECIFIED', 'UNSPECIFIED', '' ) ;
#97 = DATE_AND_TIME ( #72, #148 ) ;
#98 = SHAPE_DEFINITION_REPRESENTATION ( #229, #231 ) ;
#99 = EDGE_CURVE ( 'NONE', #25, #25, #190, .T. ) ;
#100 = AXIS2_PLACEMENT_3D ( 'NONE', #109, #45, #135 ) ;
#101 = LOCAL_TIME ( 14, 2, 2.000000000000000000, #164 ) ;
#102 = ADVANCED_FACE ( 'NONE', ( #181 ), #185, .T. ) ;
#103 = APPLICATION_CONTEXT ( 'configuration controlled 3d designs of mechanical parts and assemblies' ) ;
#104 = AXIS2_PLACEMENT_3D ( 'NONE', #85, #154, #23 ) ;
#105 = EDGE_LOOP ( 'NONE', ( #232 ) ) ;
#106 = CC_DESIGN_PERSON_AND_ORGANIZATION_ASSIGNMENT ( #117, #239, ( #21 ) ) ;
#107 = DIRECTION ( 'NONE',  ( -3.491481338843133355E-15, 1.049697256412017316E-16, -1.000000000000000000 ) ) ;
#108 = EDGE_LOOP ( 'NONE', ( #204 ) ) ;
#109 = CARTESIAN_POINT ( 'NONE',  ( 2.444036937190193601E-13, -7.347880794884121511E-15, 70.00000000000000000 ) ) ;
#110 = APPROVAL ( #228, 'UNSPECIFIED' ) ;
#111 = PLANE ( 'NONE',  #201 ) ;
#112 = DIRECTION ( 'NONE',  ( -1.999001581158821437E-30, 1.000000000000000000, -5.725368080647311388E-16 ) ) ;
#113 = SECURITY_CLASSIFICATION_LEVEL ( 'unclassified' ) ;
#114 = AXIS2_PLACEMENT_3D ( 'NONE', #167, #92, #30 ) ;
#115 = FACE_OUTER_BOUND ( 'NONE', #28, .T. ) ;
#116 = CARTESIAN_POINT ( 'NONE',  ( 0.0000000000000000000, 0.0000000000000000000, 0.0000000000000000000 ) ) ;
#117 = PERSON_AND_ORGANIZATION ( #9, #96 ) ;
#118 = CALENDAR_DATE ( 2021, 26, 11 ) ;
#119 = ADVANCED_FACE ( 'NONE', ( #32, #222 ), #40, .T. ) ;
#120 = CIRCLE ( 'NONE', #192, 1.843999999999999861 ) ;
#121 = CARTESIAN_POINT ( 'NONE',  ( 3.661413927181929856E-14, 1.843999999999998751, 10.48670627692686352 ) ) ;
#122 = DIRECTION ( 'NONE',  ( 3.491481338843133355E-15, 5.725368080647311388E-16, 1.000000000000000000 ) ) ;
#123 = ORIENTED_EDGE ( 'NONE', *, *, #169, .T. ) ;
#124 = EDGE_CURVE ( 'NONE', #237, #237, #66, .T. ) ;
#125 = FACE_OUTER_BOUND ( 'NONE', #8, .T. ) ;
#126 = DIRECTION ( 'NONE',  ( -1.999001581158821437E-30, 1.000000000000000000, -5.725368080647312374E-16 ) ) ;
#127 = DATE_AND_TIME ( #208, #60 ) ;
#128 = CARTESIAN_POINT ( 'NONE',  ( 3.661413927181930487E-14, 6.004025338904088311E-15, 10.48670627692686530 ) ) ;
#129 = AXIS2_PLACEMENT_3D ( 'NONE', #214, #107, #47 ) ;
#130 = PERSON_AND_ORGANIZATION ( #9, #96 ) ;
#131 = DATE_TIME_ROLE ( 'classification_date' ) ;
#132 = AXIS2_PLACEMENT_3D ( 'NONE', #88, #184, #51 ) ;
#133 = CC_DESIGN_SECURITY_CLASSIFICATION ( #173, ( #134 ) ) ;
#134 = PRODUCT_DEFINITION_FORMATION_WITH_SPECIFIED_SOURCE ( 'ANY', '', #21, .NOT_KNOWN. ) ;
#135 = DIRECTION ( 'NONE',  ( 0.0000000000000000000, 1.000000000000000000, 0.0000000000000000000 ) ) ;
#136 = FACE_OUTER_BOUND ( 'NONE', #175, .T. ) ;
#137 = DIRECTION ( 'NONE',  ( 1.999001581158821437E-30, -1.000000000000000000, 5.725368080647311388E-16 ) ) ;
#138 = ORIENTED_EDGE ( 'NONE', *, *, #151, .T. ) ;
#139 = CARTESIAN_POINT ( 'NONE',  ( 2.433562493173664138E-13, 1.499999999999990230, 69.70000000000001705 ) ) ;
#140 = AXIS2_PLACEMENT_3D ( 'NONE', #240, #197, #126 ) ;
#141 = VERTEX_POINT ( 'NONE', #176 ) ;
#142 = DIRECTION ( 'NONE',  ( -3.491481338843133355E-15, -5.725368080647311388E-16, -1.000000000000000000 ) ) ;
#143 = ADVANCED_FACE ( 'NONE', ( #71 ), #146, .T. ) ;
#144 = PERSON_AND_ORGANIZATION_ROLE ( 'creator' ) ;
#145 = DIRECTION ( 'NONE',  ( 3.491481338843133355E-15, 5.725368080647311388E-16, 1.000000000000000000 ) ) ;
#146 = PLANE ( 'NONE',  #171 ) ;
#147 = CONICAL_SURFACE ( 'NONE', #104, 1.843999999999999861, 0.5235987755982930425 ) ;
#148 = LOCAL_TIME ( 14, 2, 2.000000000000000000, #150 ) ;
#149 = COORDINATED_UNIVERSAL_TIME_OFFSET ( 1, 0, .AHEAD. ) ;
#150 = COORDINATED_UNIVERSAL_TIME_OFFSET ( 1, 0, .AHEAD. ) ;
#151 = EDGE_CURVE ( 'NONE', #27, #27, #120, .T. ) ;
#152 = DIRECTION ( 'NONE',  ( 1.000000000000000000, 0.0000000000000000000, 0.0000000000000000000 ) ) ;
#153 = AXIS2_PLACEMENT_3D ( 'NONE', #202, #13, #15 ) ;
#154 = DIRECTION ( 'NONE',  ( -3.491481338843133355E-15, 1.049697256412017316E-16, -1.000000000000000000 ) ) ;
#155 = ORIENTED_EDGE ( 'NONE', *, *, #22, .F. ) ;
#156 = CIRCLE ( 'NONE', #114, 1.499999999999992673 ) ;
#157 = FACE_OUTER_BOUND ( 'NONE', #24, .T. ) ;
#158 = FACE_OUTER_BOUND ( 'NONE', #41, .T. ) ;
#159 = ORIENTED_EDGE ( 'NONE', *, *, #151, .F. ) ;
#160 = DIRECTION ( 'NONE',  ( -3.491481338843133355E-15, -5.725368080647311388E-16, -1.000000000000000000 ) ) ;
#161 = EDGE_LOOP ( 'NONE', ( #61 ) ) ;
#162 = FACE_BOUND ( 'NONE', #161, .T. ) ;
#163 = CARTESIAN_POINT ( 'NONE',  ( 3.661413927181929225E-14, 1.843999999999998751, 10.48670627692686175 ) ) ;
#164 = COORDINATED_UNIVERSAL_TIME_OFFSET ( 1, 0, .AHEAD. ) ;
#165 = CYLINDRICAL_SURFACE ( 'NONE', #187, 1.843999999999995865 ) ;
#166 = ADVANCED_FACE ( 'NONE', ( #125 ), #234, .T. ) ;
#167 = CARTESIAN_POINT ( 'NONE',  ( 3.869445280877825814E-14, -1.163330317703974832E-15, 11.08253175473057794 ) ) ;
#168 = COORDINATED_UNIVERSAL_TIME_OFFSET ( 1, 0, .AHEAD. ) ;
#169 = EDGE_CURVE ( 'NONE', #233, #233, #7, .T. ) ;
#170 = DIRECTION ( 'NONE',  ( 0.0000000000000000000, 0.0000000000000000000, 1.000000000000000000 ) ) ;
#171 = AXIS2_PLACEMENT_3D ( 'NONE', #163, #238, #191 ) ;
#172 = APPROVAL_PERSON_ORGANIZATION ( #95, #44, #73 ) ;
#173 = SECURITY_CLASSIFICATION ( '', '', #113 ) ;
#174 = VERTEX_POINT ( 'NONE', #221 ) ;
#175 = EDGE_LOOP ( 'NONE', ( #159 ) ) ;
#176 = CARTESIAN_POINT ( 'NONE',  ( 3.661413927181929856E-14, 1.843999999999998751, 10.48670627692686352 ) ) ;
#177 = LOCAL_TIME ( 14, 2, 2.000000000000000000, #223 ) ;
#178 = APPLICATION_PROTOCOL_DEFINITION ( 'international standard', 'config_control_design', 1994, #103 ) ;
#179 = EDGE_LOOP ( 'NONE', ( #138 ) ) ;
#180 = CARTESIAN_POINT ( 'NONE',  ( 3.661413927181929856E-14, -1.100786680768880924E-15, 10.48670627692686352 ) ) ;
#181 = FACE_OUTER_BOUND ( 'NONE', #105, .T. ) ;
#182 = MECHANICAL_CONTEXT ( 'NONE', #103, 'mechanical' ) ;
#183 = CLOSED_SHELL ( 'NONE', ( #102, #119, #230, #189, #143 ) ) ;
#184 = DIRECTION ( 'NONE',  ( -3.491481338843133355E-15, 1.049697256412017316E-16, -1.000000000000000000 ) ) ;
#185 = PLANE ( 'NONE',  #75 ) ;
#186 = APPROVAL_STATUS ( 'not_yet_approved' ) ;
#187 = AXIS2_PLACEMENT_3D ( 'NONE', #116, #142, #112 ) ;
#188 = DATE_AND_TIME ( #206, #11 ) ;
#189 = ADVANCED_FACE ( 'NONE', ( #162, #136 ), #147, .T. ) ;
#190 = CIRCLE ( 'NONE', #140, 1.699662432702592652 ) ;
#191 = DIRECTION ( 'NONE',  ( 3.664998382197393967E-31, 1.000000000000000000, 1.049697256412017316E-16 ) ) ;
#192 = AXIS2_PLACEMENT_3D ( 'NONE', #180, #81, #87 ) ;
#193 = CC_DESIGN_APPROVAL ( #211, ( #134 ) ) ;
#194 = CYLINDRICAL_SURFACE ( 'NONE', #129, 1.499999999999995337 ) ;
#195 = ORIENTED_EDGE ( 'NONE', *, *, #99, .T. ) ;
#196 = DIRECTION ( 'NONE',  ( -3.491481338843133355E-15, 1.049697256412017316E-16, -1.000000000000000000 ) ) ;
#197 = DIRECTION ( 'NONE',  ( -3.491481338843133355E-15, -5.725368080647311388E-16, -1.000000000000000000 ) ) ;
#198 = VERTEX_POINT ( 'NONE', #65 ) ;
#199 = DIRECTION ( 'NONE',  ( -3.664998382197393967E-31, -1.000000000000000000, -1.049697256412017316E-16 ) ) ;
#200 = PERSON_AND_ORGANIZATION_ROLE ( 'design_supplier' ) ;
#201 = AXIS2_PLACEMENT_3D ( 'NONE', #42, #160, #216 ) ;
#202 = CARTESIAN_POINT ( 'NONE',  ( 8.728703347107867901E-16, 1.431342020161833270E-16, 0.2500000000000009992 ) ) ;
#203 = PERSON_AND_ORGANIZATION ( #9, #96 ) ;
#204 = ORIENTED_EDGE ( 'NONE', *, *, #76, .T. ) ;
#205 = APPROVAL_STATUS ( 'not_yet_approved' ) ;
#206 = CALENDAR_DATE ( 2021, 26, 11 ) ;
#207 = AXIS2_PLACEMENT_3D ( 'NONE', #67, #122, #137 ) ;
#208 = CALENDAR_DATE ( 2021, 26, 11 ) ;
#209 = ADVANCED_FACE ( 'NONE', ( #158 ), #111, .T. ) ;
#210 = MANIFOLD_SOLID_BREP ( 'Corps-Déplacer/Copier1[2]', #84 ) ;
#211 = APPROVAL ( #205, 'UNSPECIFIED' ) ;
#212 = FACE_OUTER_BOUND ( 'NONE', #80, .T. ) ;
#213 = ORIENTED_EDGE ( 'NONE', *, *, #169, .F. ) ;
#214 = CARTESIAN_POINT ( 'NONE',  ( 0.0000000000000000000, 0.0000000000000000000, 0.0000000000000000000 ) ) ;
#215 = ORIENTED_EDGE ( 'NONE', *, *, #124, .F. ) ;
#216 = DIRECTION ( 'NONE',  ( -1.999001581158821437E-30, 1.000000000000000000, -5.725368080647311388E-16 ) ) ;
#217 = CIRCLE ( 'NONE', #3, 1.843999999999992756 ) ;
#218 = CC_DESIGN_APPROVAL ( #110, ( #173 ) ) ;
#219 = ORIENTED_EDGE ( 'NONE', *, *, #225, .T. ) ;
#220 = MANIFOLD_SOLID_BREP ( 'Corps-Déplacer/Copier1[1]', #183 ) ;
#221 = CARTESIAN_POINT ( 'NONE',  ( 2.444036937190193601E-13, 1.199999999999990186, 70.00000000000000000 ) ) ;
#222 = FACE_OUTER_BOUND ( 'NONE', #4, .T. ) ;
#223 = COORDINATED_UNIVERSAL_TIME_OFFSET ( 1, 0, .AHEAD. ) ;
#224 = FACE_OUTER_BOUND ( 'NONE', #108, .T. ) ;
#225 = EDGE_CURVE ( 'NONE', #174, #174, #89, .T. ) ;
#226 = ORIENTED_EDGE ( 'NONE', *, *, #99, .F. ) ;
#227 = PERSON_AND_ORGANIZATION ( #9, #96 ) ;
#228 = APPROVAL_STATUS ( 'not_yet_approved' ) ;
#229 = PRODUCT_DEFINITION_SHAPE ( 'NONE', 'NONE',  #94 ) ;
#230 = ADVANCED_FACE ( 'NONE', ( #212, #157 ), #194, .T. ) ;
#231 = ADVANCED_BREP_SHAPE_REPRESENTATION ( '321272', ( #220, #210, #57 ), #26 ) ;
#232 = ORIENTED_EDGE ( 'NONE', *, *, #225, .F. ) ;
#233 = VERTEX_POINT ( 'NONE', #139 ) ;
#234 = PLANE ( 'NONE',  #207 ) ;
#235 = EDGE_LOOP ( 'NONE', ( #43 ) ) ;
#236 = CC_DESIGN_PERSON_AND_ORGANIZATION_ASSIGNMENT ( #227, #93, ( #134 ) ) ;
#237 = VERTEX_POINT ( 'NONE', #29 ) ;
#238 = DIRECTION ( 'NONE',  ( -3.491481338843133355E-15, 1.049697256412017316E-16, -1.000000000000000000 ) ) ;
#239 = PERSON_AND_ORGANIZATION_ROLE ( 'design_owner' ) ;
#240 = CARTESIAN_POINT ( 'NONE',  ( 3.208354307770416471E-30, 5.261093376258005114E-31, 9.189091953828031591E-16 ) ) ;
#241 = CC_DESIGN_PERSON_AND_ORGANIZATION_ASSIGNMENT ( #16, #200, ( #134 ) ) ;
#242 = DIRECTION ( 'NONE',  ( 3.491481338843133355E-15, -1.049697256412017316E-16, 1.000000000000000000 ) ) ;
#243 = PERSON_AND_ORGANIZATION ( #9, #96 ) ;
ENDSEC;
END-ISO-10303-21;
