ISO-10303-21;
HEADER;
FILE_DESCRIPTION (( 'STEP AP203' ),
    '1' );
FILE_NAME ('321271.step',
    '2021-11-26T13:02:01',
    ( '' ),
    ( '' ),
    'SwSTEP 2.0',
    'SolidWorks 2019',
    '' );
FILE_SCHEMA (( 'CONFIG_CONTROL_DESIGN' ));
ENDSEC;

DATA;
#1 = CLOSED_SHELL ( 'NONE', ( #231, #184, #22, #195, #227 ) ) ;
#2 = CALENDAR_DATE ( 2021, 26, 11 ) ;
#3 = CIRCLE ( 'NONE', #241, 1.838999999999999746 ) ;
#4 = APPROVAL_PERSON_ORGANIZATION ( #157, #80, #158 ) ;
#5 = ADVANCED_FACE ( 'NONE', ( #52, #128 ), #165, .T. ) ;
#6 = ORIENTED_EDGE ( 'NONE', *, *, #61, .F. ) ;
#7 = CONICAL_SURFACE ( 'NONE', #71, 1.838999999999999746, 0.5235987755982932645 ) ;
#8 = ORIENTED_EDGE ( 'NONE', *, *, #73, .T. ) ;
#9 = APPROVAL ( #139, 'UNSPECIFIED' ) ;
#10 = SHAPE_DEFINITION_REPRESENTATION ( #153, #97 ) ;
#11 = AXIS2_PLACEMENT_3D ( 'NONE', #30, #57, #78 ) ;
#12 = ORIENTED_EDGE ( 'NONE', *, *, #61, .T. ) ;
#13 = FACE_OUTER_BOUND ( 'NONE', #46, .T. ) ;
#14 = CARTESIAN_POINT ( 'NONE',  ( 3.664437638718206729E-14, 1.838999999999998636, 10.49536653096470928 ) ) ;
#15 = FACE_OUTER_BOUND ( 'NONE', #199, .T. ) ;
#16 = CC_DESIGN_DATE_AND_TIME_ASSIGNMENT ( #82, #127, ( #95 ) ) ;
#17 = CARTESIAN_POINT ( 'NONE',  ( 2.433562493173664138E-13, -7.316389877191761450E-15, 69.70000000000001705 ) ) ;
#18 = DIRECTION ( 'NONE',  ( -1.996646463902947898E-30, 1.000000000000000000, -5.718622756736589839E-16 ) ) ;
#19 = VERTEX_POINT ( 'NONE', #41 ) ;
#20 = ORGANIZATION ( 'UNSPECIFIED', 'UNSPECIFIED', '' ) ;
#21 = CARTESIAN_POINT ( 'NONE',  ( 2.444036937190193601E-13, -7.347880794884121511E-15, 70.00000000000000000 ) ) ;
#22 = ADVANCED_FACE ( 'NONE', ( #225, #15 ), #147, .T. ) ;
#23 = VERTEX_POINT ( 'NONE', #65 ) ;
#24 = CARTESIAN_POINT ( 'NONE',  ( 2.444036937190193601E-13, 1.199999999999990186, 70.00000000000000000 ) ) ;
#25 = APPROVAL_DATE_TIME ( #236, #80 ) ;
#26 = PERSON_AND_ORGANIZATION ( #83, #20 ) ;
#27 = ORIENTED_EDGE ( 'NONE', *, *, #107, .T. ) ;
#28 = EDGE_LOOP ( 'NONE', ( #27 ) ) ;
#29 = DIRECTION ( 'NONE',  ( -3.491481338843133355E-15, 1.049697256412017316E-16, -1.000000000000000000 ) ) ;
#30 = CARTESIAN_POINT ( 'NONE',  ( 0.0000000000000000000, 0.0000000000000000000, 0.0000000000000000000 ) ) ;
#31 = DESIGN_CONTEXT ( 'detailed design', #88, 'design' ) ;
#32 = DIRECTION ( 'NONE',  ( 1.996646463902947898E-30, -1.000000000000000000, 5.718622756736589839E-16 ) ) ;
#33 = FACE_OUTER_BOUND ( 'NONE', #85, .T. ) ;
#34 = LOCAL_TIME ( 14, 2, 1.000000000000000000, #229 ) ;
#35 = DIRECTION ( 'NONE',  ( -3.491481338843133355E-15, -5.718622756736589839E-16, -1.000000000000000000 ) ) ;
#36 = APPLICATION_CONTEXT ( 'configuration controlled 3d designs of mechanical parts and assemblies' ) ;
#37 = PERSON_AND_ORGANIZATION ( #83, #20 ) ;
#38 = VERTEX_POINT ( 'NONE', #151 ) ;
#39 = CIRCLE ( 'NONE', #155, 1.199999999999997513 ) ;
#40 = PRODUCT ( '321271', '321271', '', ( #209 ) ) ;
#41 = CARTESIAN_POINT ( 'NONE',  ( 3.664437638718206729E-14, 1.838999999999998636, 10.49536653096470928 ) ) ;
#42 = ADVANCED_FACE ( 'NONE', ( #208 ), #56, .T. ) ;
#43 = VERTEX_POINT ( 'NONE', #84 ) ;
#44 = CIRCLE ( 'NONE', #162, 1.694662432702592536 ) ;
#45 = APPROVAL_ROLE ( '' ) ;
#46 = EDGE_LOOP ( 'NONE', ( #196 ) ) ;
#47 = EDGE_CURVE ( 'NONE', #118, #118, #39, .T. ) ;
#48 = PERSON_AND_ORGANIZATION ( #83, #20 ) ;
#49 = AXIS2_PLACEMENT_3D ( 'NONE', #135, #60, #194 ) ;
#50 = ORIENTED_EDGE ( 'NONE', *, *, #239, .F. ) ;
#51 = ORIENTED_EDGE ( 'NONE', *, *, #193, .T. ) ;
#52 = FACE_OUTER_BOUND ( 'NONE', #70, .T. ) ;
#53 = CIRCLE ( 'NONE', #64, 1.499999999999992673 ) ;
#54 = DIRECTION ( 'NONE',  ( 3.664998382197393967E-31, 1.000000000000000000, 1.049697256412017316E-16 ) ) ;
#55 = APPROVAL ( #106, 'UNSPECIFIED' ) ;
#56 = PLANE ( 'NONE',  #115 ) ;
#57 = DIRECTION ( 'NONE',  ( -3.491481338843133355E-15, -5.718622756736589839E-16, -1.000000000000000000 ) ) ;
#58 = FACE_OUTER_BOUND ( 'NONE', #180, .T. ) ;
#59 = AXIS2_PLACEMENT_3D ( 'NONE', #17, #111, #94 ) ;
#60 = DIRECTION ( 'NONE',  ( 0.0000000000000000000, 0.0000000000000000000, 1.000000000000000000 ) ) ;
#61 = EDGE_CURVE ( 'NONE', #23, #23, #44, .T. ) ;
#62 = PERSON_AND_ORGANIZATION_ROLE ( 'creator' ) ;
#63 = APPROVAL_ROLE ( '' ) ;
#64 = AXIS2_PLACEMENT_3D ( 'NONE', #192, #100, #134 ) ;
#65 = CARTESIAN_POINT ( 'NONE',  ( -1.892735826383161356E-31, 1.694662432702592536, -5.421010862427522170E-17 ) ) ;
#66 = DIRECTION ( 'NONE',  ( -3.664998382197393967E-31, -1.000000000000000000, -1.049697256412017316E-16 ) ) ;
#67 = COORDINATED_UNIVERSAL_TIME_OFFSET ( 1, 0, .AHEAD. ) ;
#68 = AXIS2_PLACEMENT_3D ( 'NONE', #243, #130, #189 ) ;
#69 = LOCAL_TIME ( 14, 2, 1.000000000000000000, #72 ) ;
#70 = EDGE_LOOP ( 'NONE', ( #51 ) ) ;
#71 = AXIS2_PLACEMENT_3D ( 'NONE', #75, #133, #149 ) ;
#72 = COORDINATED_UNIVERSAL_TIME_OFFSET ( 1, 0, .AHEAD. ) ;
#73 = EDGE_CURVE ( 'NONE', #38, #38, #79, .T. ) ;
#74 = PLANE ( 'NONE',  #233 ) ;
#75 = CARTESIAN_POINT ( 'NONE',  ( 3.664437638718206729E-14, -1.101695745259216648E-15, 10.49536653096470928 ) ) ;
#76 = CC_DESIGN_SECURITY_CLASSIFICATION ( #163, ( #198 ) ) ;
#77 = DIRECTION ( 'NONE',  ( -3.491481338843133355E-15, -5.718622756736589839E-16, -1.000000000000000000 ) ) ;
#78 = DIRECTION ( 'NONE',  ( -1.996646463902947898E-30, 1.000000000000000000, -5.718622756736589839E-16 ) ) ;
#79 = CIRCLE ( 'NONE', #143, 1.838999999999998414 ) ;
#80 = APPROVAL ( #144, 'UNSPECIFIED' ) ;
#81 = VERTEX_POINT ( 'NONE', #119 ) ;
#82 = DATE_AND_TIME ( #212, #207 ) ;
#83 = PERSON ( 'UNSPECIFIED', 'UNSPECIFIED', 'UNSPECIFIED', ('UNSPECIFIED'), ('UNSPECIFIED'), ('UNSPECIFIED') ) ;
#84 = CARTESIAN_POINT ( 'NONE',  ( 2.433562493173664138E-13, 1.499999999999990230, 69.70000000000001705 ) ) ;
#85 = EDGE_LOOP ( 'NONE', ( #201 ) ) ;
#86 = EDGE_LOOP ( 'NONE', ( #12 ) ) ;
#87 = EDGE_LOOP ( 'NONE', ( #161 ) ) ;
#88 = APPLICATION_CONTEXT ( 'configuration controlled 3d designs of mechanical parts and assemblies' ) ;
#89 = CARTESIAN_POINT ( 'NONE',  ( 0.0000000000000000000, 0.0000000000000000000, 0.0000000000000000000 ) ) ;
#90 = FACE_BOUND ( 'NONE', #159, .T. ) ;
#91 = CC_DESIGN_PERSON_AND_ORGANIZATION_ASSIGNMENT ( #48, #234, ( #163 ) ) ;
#92 = AXIS2_PLACEMENT_3D ( 'NONE', #89, #112, #206 ) ;
#93 = DIRECTION ( 'NONE',  ( -3.491481338843133355E-15, -5.718622756736589839E-16, -1.000000000000000000 ) ) ;
#94 = DIRECTION ( 'NONE',  ( 0.0000000000000000000, 1.000000000000000000, 0.0000000000000000000 ) ) ;
#95 = PRODUCT_DEFINITION ( 'UNKNOWN', '', #198, #31 ) ;
#96 =( NAMED_UNIT ( * ) PLANE_ANGLE_UNIT ( ) SI_UNIT ( $, .RADIAN. ) );
#97 = ADVANCED_BREP_SHAPE_REPRESENTATION ( '321271', ( #136, #214, #49 ), #168 ) ;
#98 =( NAMED_UNIT ( * ) SI_UNIT ( $, .STERADIAN. ) SOLID_ANGLE_UNIT ( ) );
#99 = PERSON_AND_ORGANIZATION_ROLE ( 'design_owner' ) ;
#100 = DIRECTION ( 'NONE',  ( -3.491481338843133355E-15, 1.049697256412017316E-16, -1.000000000000000000 ) ) ;
#101 = CC_DESIGN_APPROVAL ( #80, ( #198 ) ) ;
#102 = COORDINATED_UNIVERSAL_TIME_OFFSET ( 1, 0, .AHEAD. ) ;
#103 = ORIENTED_EDGE ( 'NONE', *, *, #47, .F. ) ;
#104 = CIRCLE ( 'NONE', #167, 1.838999999999992641 ) ;
#105 = LOCAL_TIME ( 14, 2, 1.000000000000000000, #102 ) ;
#106 = APPROVAL_STATUS ( 'not_yet_approved' ) ;
#107 = EDGE_CURVE ( 'NONE', #43, #43, #171, .T. ) ;
#108 = EDGE_LOOP ( 'NONE', ( #109 ) ) ;
#109 = ORIENTED_EDGE ( 'NONE', *, *, #193, .F. ) ;
#110 = CLOSED_SHELL ( 'NONE', ( #200, #5, #113, #42 ) ) ;
#111 = DIRECTION ( 'NONE',  ( -3.491481338843133355E-15, 1.049697256412017316E-16, -1.000000000000000000 ) ) ;
#112 = DIRECTION ( 'NONE',  ( -3.491481338843133355E-15, 1.049697256412017316E-16, -1.000000000000000000 ) ) ;
#113 = ADVANCED_FACE ( 'NONE', ( #169, #131 ), #175, .T. ) ;
#114 = DIRECTION ( 'NONE',  ( -1.996646463902947548E-30, 1.000000000000000000, -5.718622756736588853E-16 ) ) ;
#115 = AXIS2_PLACEMENT_3D ( 'NONE', #202, #93, #18 ) ;
#116 = DIRECTION ( 'NONE',  ( -3.351264721065350692E-30, 1.000000000000000000, -9.432971593131126620E-16 ) ) ;
#117 = FACE_OUTER_BOUND ( 'NONE', #108, .T. ) ;
#118 = VERTEX_POINT ( 'NONE', #24 ) ;
#119 = CARTESIAN_POINT ( 'NONE',  ( 3.664437638718206729E-14, 1.838999999999998636, 10.49536653096470928 ) ) ;
#120 = DATE_AND_TIME ( #2, #34 ) ;
#121 = VERTEX_POINT ( 'NONE', #173 ) ;
#122 = CC_DESIGN_APPROVAL ( #55, ( #163 ) ) ;
#123 = CC_DESIGN_PERSON_AND_ORGANIZATION_ASSIGNMENT ( #228, #62, ( #95 ) ) ;
#124 = EDGE_LOOP ( 'NONE', ( #6 ) ) ;
#125 = EDGE_LOOP ( 'NONE', ( #103 ) ) ;
#126 = ORIENTED_EDGE ( 'NONE', *, *, #239, .T. ) ;
#127 = DATE_TIME_ROLE ( 'creation_date' ) ;
#128 = FACE_OUTER_BOUND ( 'NONE', #87, .T. ) ;
#129 = AXIS2_PLACEMENT_3D ( 'NONE', #21, #210, #66 ) ;
#130 = DIRECTION ( 'NONE',  ( 3.491481338843133355E-15, 5.718622756736589839E-16, 1.000000000000000000 ) ) ;
#131 = FACE_BOUND ( 'NONE', #124, .T. ) ;
#132 = UNCERTAINTY_MEASURE_WITH_UNIT (LENGTH_MEASURE( 1.000000000000000082E-05 ), #174, 'distance_accuracy_value', 'NONE');
#133 = DIRECTION ( 'NONE',  ( -3.491481338843133355E-15, 1.049697256412017316E-16, -1.000000000000000000 ) ) ;
#134 = DIRECTION ( 'NONE',  ( 0.0000000000000000000, 1.000000000000000000, 0.0000000000000000000 ) ) ;
#135 = CARTESIAN_POINT ( 'NONE',  ( 0.0000000000000000000, 0.0000000000000000000, 0.0000000000000000000 ) ) ;
#136 = MANIFOLD_SOLID_BREP ( 'Corps-Déplacer/Copier1[1]', #1 ) ;
#137 = CC_DESIGN_PERSON_AND_ORGANIZATION_ASSIGNMENT ( #26, #235, ( #198 ) ) ;
#138 = COORDINATED_UNIVERSAL_TIME_OFFSET ( 1, 0, .AHEAD. ) ;
#139 = APPROVAL_STATUS ( 'not_yet_approved' ) ;
#140 = PLANE ( 'NONE',  #129 ) ;
#141 = EDGE_CURVE ( 'NONE', #81, #81, #3, .T. ) ;
#142 = PERSON_AND_ORGANIZATION ( #83, #20 ) ;
#143 = AXIS2_PLACEMENT_3D ( 'NONE', #190, #35, #237 ) ;
#144 = APPROVAL_STATUS ( 'not_yet_approved' ) ;
#145 = LOCAL_TIME ( 14, 2, 1.000000000000000000, #67 ) ;
#146 = DIRECTION ( 'NONE',  ( 3.491481338843133355E-15, 5.718622756736589839E-16, 1.000000000000000000 ) ) ;
#147 = CYLINDRICAL_SURFACE ( 'NONE', #92, 1.499999999999995337 ) ;
#148 = AXIS2_PLACEMENT_3D ( 'NONE', #164, #146, #32 ) ;
#149 = DIRECTION ( 'NONE',  ( 0.0000000000000000000, 1.000000000000000000, 0.0000000000000000000 ) ) ;
#150 = DIRECTION ( 'NONE',  ( -3.491481338843133355E-15, -5.718622756736589839E-16, -1.000000000000000000 ) ) ;
#151 = CARTESIAN_POINT ( 'NONE',  ( 8.728703347107831416E-16, 1.838999999999998636, 0.2499999999999999445 ) ) ;
#152 = APPROVAL_DATE_TIME ( #120, #9 ) ;
#153 = PRODUCT_DEFINITION_SHAPE ( 'NONE', 'NONE',  #95 ) ;
#154 = PERSON_AND_ORGANIZATION ( #83, #20 ) ;
#155 = AXIS2_PLACEMENT_3D ( 'NONE', #166, #29, #240 ) ;
#156 = APPLICATION_PROTOCOL_DEFINITION ( 'international standard', 'config_control_design', 1994, #36 ) ;
#157 = PERSON_AND_ORGANIZATION ( #83, #20 ) ;
#158 = APPROVAL_ROLE ( '' ) ;
#159 = EDGE_LOOP ( 'NONE', ( #179 ) ) ;
#160 = PERSON_AND_ORGANIZATION ( #83, #20 ) ;
#161 = ORIENTED_EDGE ( 'NONE', *, *, #73, .F. ) ;
#162 = AXIS2_PLACEMENT_3D ( 'NONE', #238, #150, #114 ) ;
#163 = SECURITY_CLASSIFICATION ( '', '', #232 ) ;
#164 = CARTESIAN_POINT ( 'NONE',  ( 3.664437638718206729E-14, 6.001904188426633490E-15, 10.49536653096470928 ) ) ;
#165 = CYLINDRICAL_SURFACE ( 'NONE', #11, 1.838999999999995527 ) ;
#166 = CARTESIAN_POINT ( 'NONE',  ( 2.444036937190193601E-13, -7.347880794884121511E-15, 70.00000000000000000 ) ) ;
#167 = AXIS2_PLACEMENT_3D ( 'NONE', #221, #77, #116 ) ;
#168 =( GEOMETRIC_REPRESENTATION_CONTEXT ( 3 ) GLOBAL_UNCERTAINTY_ASSIGNED_CONTEXT ( ( #132 ) ) GLOBAL_UNIT_ASSIGNED_CONTEXT ( ( #174, #96, #98 ) ) REPRESENTATION_CONTEXT ( 'NONE', 'WORKASPACE' ) );
#169 = FACE_OUTER_BOUND ( 'NONE', #185, .T. ) ;
#170 = CARTESIAN_POINT ( 'NONE',  ( 3.664437638718206729E-14, -1.101695745259216648E-15, 10.49536653096470928 ) ) ;
#171 = CIRCLE ( 'NONE', #59, 1.499999999999997558 ) ;
#172 = APPLICATION_PROTOCOL_DEFINITION ( 'international standard', 'config_control_design', 1994, #88 ) ;
#173 = CARTESIAN_POINT ( 'NONE',  ( 3.869445280877825814E-14, 1.499999999999991562, 11.08253175473057794 ) ) ;
#174 =( LENGTH_UNIT ( ) NAMED_UNIT ( * ) SI_UNIT ( .MILLI., .METRE. ) );
#175 = CONICAL_SURFACE ( 'NONE', #68, 1.694662432702592536, 0.5235987755982971503 ) ;
#176 = APPROVAL_PERSON_ORGANIZATION ( #142, #55, #45 ) ;
#177 = CALENDAR_DATE ( 2021, 26, 11 ) ;
#178 = APPROVAL_DATE_TIME ( #217, #55 ) ;
#179 = ORIENTED_EDGE ( 'NONE', *, *, #47, .T. ) ;
#180 = EDGE_LOOP ( 'NONE', ( #218 ) ) ;
#181 = CONICAL_SURFACE ( 'NONE', #203, 1.499999999999997558, 0.7853981633974573828 ) ;
#182 = CC_DESIGN_PERSON_AND_ORGANIZATION_ASSIGNMENT ( #160, #230, ( #198 ) ) ;
#183 = CALENDAR_DATE ( 2021, 26, 11 ) ;
#184 = ADVANCED_FACE ( 'NONE', ( #90, #33 ), #181, .T. ) ;
#185 = EDGE_LOOP ( 'NONE', ( #8 ) ) ;
#186 = DIRECTION ( 'NONE',  ( -3.491481338843133355E-15, 1.049697256412017316E-16, -1.000000000000000000 ) ) ;
#187 = DIRECTION ( 'NONE',  ( 0.0000000000000000000, 1.000000000000000000, 0.0000000000000000000 ) ) ;
#188 = CC_DESIGN_DATE_AND_TIME_ASSIGNMENT ( #219, #215, ( #163 ) ) ;
#189 = DIRECTION ( 'NONE',  ( 1.996646463902947198E-30, -1.000000000000000000, 5.718622756736588853E-16 ) ) ;
#190 = CARTESIAN_POINT ( 'NONE',  ( 8.728703347107867901E-16, 1.429655689184153130E-16, 0.2500000000000009992 ) ) ;
#191 = PLANE ( 'NONE',  #148 ) ;
#192 = CARTESIAN_POINT ( 'NONE',  ( 3.869445280877825814E-14, -1.163330317703974832E-15, 11.08253175473057794 ) ) ;
#193 = EDGE_CURVE ( 'NONE', #19, #19, #104, .T. ) ;
#194 = DIRECTION ( 'NONE',  ( 1.000000000000000000, 0.0000000000000000000, 0.0000000000000000000 ) ) ;
#195 = ADVANCED_FACE ( 'NONE', ( #226, #58 ), #7, .T. ) ;
#196 = ORIENTED_EDGE ( 'NONE', *, *, #141, .T. ) ;
#197 = CALENDAR_DATE ( 2021, 26, 11 ) ;
#198 = PRODUCT_DEFINITION_FORMATION_WITH_SPECIFIED_SOURCE ( 'ANY', '', #40, .NOT_KNOWN. ) ;
#199 = EDGE_LOOP ( 'NONE', ( #50 ) ) ;
#200 = ADVANCED_FACE ( 'NONE', ( #117 ), #191, .T. ) ;
#201 = ORIENTED_EDGE ( 'NONE', *, *, #107, .F. ) ;
#202 = CARTESIAN_POINT ( 'NONE',  ( -1.786457668201557377E-30, 1.694662432702592536, -5.116618119441192872E-16 ) ) ;
#203 = AXIS2_PLACEMENT_3D ( 'NONE', #220, #186, #187 ) ;
#204 = DIRECTION ( 'NONE',  ( -3.491481338843133355E-15, 1.049697256412017316E-16, -1.000000000000000000 ) ) ;
#205 = DIRECTION ( 'NONE',  ( -3.491481338843133355E-15, 1.049697256412017316E-16, -1.000000000000000000 ) ) ;
#206 = DIRECTION ( 'NONE',  ( 3.664998382197393967E-31, 1.000000000000000000, 1.049697256412017316E-16 ) ) ;
#207 = LOCAL_TIME ( 14, 2, 1.000000000000000000, #138 ) ;
#208 = FACE_OUTER_BOUND ( 'NONE', #86, .T. ) ;
#209 = MECHANICAL_CONTEXT ( 'NONE', #36, 'mechanical' ) ;
#210 = DIRECTION ( 'NONE',  ( 3.491481338843133355E-15, -1.049697256412017316E-16, 1.000000000000000000 ) ) ;
#211 = CC_DESIGN_APPROVAL ( #9, ( #95 ) ) ;
#212 = CALENDAR_DATE ( 2021, 26, 11 ) ;
#213 = PRODUCT_RELATED_PRODUCT_CATEGORY ( 'detail', '', ( #40 ) ) ;
#214 = MANIFOLD_SOLID_BREP ( 'Corps-Déplacer/Copier1[2]', #110 ) ;
#215 = DATE_TIME_ROLE ( 'classification_date' ) ;
#216 = EDGE_LOOP ( 'NONE', ( #126 ) ) ;
#217 = DATE_AND_TIME ( #177, #105 ) ;
#218 = ORIENTED_EDGE ( 'NONE', *, *, #141, .F. ) ;
#219 = DATE_AND_TIME ( #183, #69 ) ;
#220 = CARTESIAN_POINT ( 'NONE',  ( 2.433562493173664138E-13, -7.316389877191761450E-15, 69.70000000000001705 ) ) ;
#221 = CARTESIAN_POINT ( 'NONE',  ( 3.664437638718207360E-14, 6.001904188426635856E-15, 10.49536653096471106 ) ) ;
#222 = APPROVAL_PERSON_ORGANIZATION ( #37, #9, #63 ) ;
#223 = CC_DESIGN_PERSON_AND_ORGANIZATION_ASSIGNMENT ( #154, #99, ( #40 ) ) ;
#224 = FACE_OUTER_BOUND ( 'NONE', #125, .T. ) ;
#225 = FACE_OUTER_BOUND ( 'NONE', #28, .T. ) ;
#226 = FACE_BOUND ( 'NONE', #216, .T. ) ;
#227 = ADVANCED_FACE ( 'NONE', ( #13 ), #74, .T. ) ;
#228 = PERSON_AND_ORGANIZATION ( #83, #20 ) ;
#229 = COORDINATED_UNIVERSAL_TIME_OFFSET ( 1, 0, .AHEAD. ) ;
#230 = PERSON_AND_ORGANIZATION_ROLE ( 'creator' ) ;
#231 = ADVANCED_FACE ( 'NONE', ( #224 ), #140, .T. ) ;
#232 = SECURITY_CLASSIFICATION_LEVEL ( 'unclassified' ) ;
#233 = AXIS2_PLACEMENT_3D ( 'NONE', #14, #204, #54 ) ;
#234 = PERSON_AND_ORGANIZATION_ROLE ( 'classification_officer' ) ;
#235 = PERSON_AND_ORGANIZATION_ROLE ( 'design_supplier' ) ;
#236 = DATE_AND_TIME ( #197, #145 ) ;
#237 = DIRECTION ( 'NONE',  ( -1.989813428132545580E-30, 1.000000000000000000, -5.600826883421588435E-16 ) ) ;
#238 = CARTESIAN_POINT ( 'NONE',  ( 3.194368171126482526E-30, 5.231987441425550239E-31, 9.149034066396881310E-16 ) ) ;
#239 = EDGE_CURVE ( 'NONE', #121, #121, #53, .T. ) ;
#240 = DIRECTION ( 'NONE',  ( 0.0000000000000000000, 1.000000000000000000, 0.0000000000000000000 ) ) ;
#241 = AXIS2_PLACEMENT_3D ( 'NONE', #170, #205, #242 ) ;
#242 = DIRECTION ( 'NONE',  ( 0.0000000000000000000, 1.000000000000000000, 0.0000000000000000000 ) ) ;
#243 = CARTESIAN_POINT ( 'NONE',  ( 3.194368171126482526E-30, 5.231987441425550239E-31, 9.149034066396881310E-16 ) ) ;
ENDSEC;
END-ISO-10303-21;
