ISO-10303-21;
HEADER;
FILE_DESCRIPTION (( 'STEP AP203' ),
    '1' );
FILE_NAME ('321270.step',
    '2021-11-26T13:02:00',
    ( '' ),
    ( '' ),
    'SwSTEP 2.0',
    'SolidWorks 2019',
    '' );
FILE_SCHEMA (( 'CONFIG_CONTROL_DESIGN' ));
ENDSEC;

DATA;
#1 = EDGE_LOOP ( 'NONE', ( #98 ) ) ;
#2 = VERTEX_POINT ( 'NONE', #80 ) ;
#3 = DIRECTION ( 'NONE',  ( -3.491481338843133355E-15, -5.711888555459096216E-16, -1.000000000000000000 ) ) ;
#4 = CYLINDRICAL_SURFACE ( 'NONE', #20, 1.833999999999995856 ) ;
#5 = DIRECTION ( 'NONE',  ( 1.994295230093709674E-30, -1.000000000000000000, 5.711888555459096216E-16 ) ) ;
#6 = APPROVAL_DATE_TIME ( #50, #221 ) ;
#7 = PERSON_AND_ORGANIZATION ( #207, #202 ) ;
#8 = LOCAL_TIME ( 14, 2, 0.0000000000000000000, #217 ) ;
#9 = PERSON_AND_ORGANIZATION_ROLE ( 'creator' ) ;
#10 = PERSON_AND_ORGANIZATION ( #207, #202 ) ;
#11 = CC_DESIGN_APPROVAL ( #86, ( #110 ) ) ;
#12 = EDGE_LOOP ( 'NONE', ( #113 ) ) ;
#13 = CARTESIAN_POINT ( 'NONE',  ( 8.728703347107867901E-16, 1.427972138864779477E-16, 0.2500000000000009992 ) ) ;
#14 = ORIENTED_EDGE ( 'NONE', *, *, #236, .F. ) ;
#15 = PRODUCT_RELATED_PRODUCT_CATEGORY ( 'detail', '', ( #68 ) ) ;
#16 = APPROVAL_PERSON_ORGANIZATION ( #30, #86, #53 ) ;
#17 = CYLINDRICAL_SURFACE ( 'NONE', #233, 1.499999999999995337 ) ;
#18 = EDGE_LOOP ( 'NONE', ( #57 ) ) ;
#19 = VERTEX_POINT ( 'NONE', #225 ) ;
#20 = AXIS2_PLACEMENT_3D ( 'NONE', #41, #3, #139 ) ;
#21 = DIRECTION ( 'NONE',  ( -3.491481338843133355E-15, 1.049697256412017316E-16, -1.000000000000000000 ) ) ;
#22 = VERTEX_POINT ( 'NONE', #176 ) ;
#23 = FACE_BOUND ( 'NONE', #131, .T. ) ;
#24 = DIRECTION ( 'NONE',  ( -3.491481338843133355E-15, 1.049697256412017316E-16, -1.000000000000000000 ) ) ;
#25 = SHAPE_DEFINITION_REPRESENTATION ( #26, #27 ) ;
#26 = PRODUCT_DEFINITION_SHAPE ( 'NONE', 'NONE',  #65 ) ;
#27 = ADVANCED_BREP_SHAPE_REPRESENTATION ( '321270', ( #73, #235, #100 ), #216 ) ;
#28 = APPROVAL_STATUS ( 'not_yet_approved' ) ;
#29 = CIRCLE ( 'NONE', #156, 1.833999999999992747 ) ;
#30 = PERSON_AND_ORGANIZATION ( #207, #202 ) ;
#31 = DIRECTION ( 'NONE',  ( 0.0000000000000000000, 0.0000000000000000000, 1.000000000000000000 ) ) ;
#32 = ORIENTED_EDGE ( 'NONE', *, *, #35, .T. ) ;
#33 = AXIS2_PLACEMENT_3D ( 'NONE', #137, #120, #5 ) ;
#34 = DIRECTION ( 'NONE',  ( 3.491481338843133355E-15, -1.049697256412017316E-16, 1.000000000000000000 ) ) ;
#35 = EDGE_CURVE ( 'NONE', #84, #84, #59, .T. ) ;
#36 = DIRECTION ( 'NONE',  ( -3.664998382197393967E-31, -1.000000000000000000, -1.049697256412017316E-16 ) ) ;
#37 = EDGE_LOOP ( 'NONE', ( #54 ) ) ;
#38 = EDGE_LOOP ( 'NONE', ( #14 ) ) ;
#39 = CC_DESIGN_PERSON_AND_ORGANIZATION_ASSIGNMENT ( #7, #231, ( #110 ) ) ;
#40 = CARTESIAN_POINT ( 'NONE',  ( 3.667461350254484233E-14, 1.833999999999998742, 10.50402678500255149 ) ) ;
#41 = CARTESIAN_POINT ( 'NONE',  ( 0.0000000000000000000, 0.0000000000000000000, 0.0000000000000000000 ) ) ;
#42 = SECURITY_CLASSIFICATION ( '', '', #109 ) ;
#43 = CARTESIAN_POINT ( 'NONE',  ( 3.869445280877825814E-14, 1.499999999999991562, 11.08253175473057794 ) ) ;
#44 = CARTESIAN_POINT ( 'NONE',  ( 3.667461350254484233E-14, -1.102604809749552175E-15, 10.50402678500255149 ) ) ;
#45 = DIRECTION ( 'NONE',  ( 0.0000000000000000000, 1.000000000000000000, 0.0000000000000000000 ) ) ;
#46 = CALENDAR_DATE ( 2021, 26, 11 ) ;
#47 = APPROVAL_PERSON_ORGANIZATION ( #145, #199, #182 ) ;
#48 = APPROVAL_STATUS ( 'not_yet_approved' ) ;
#49 = APPLICATION_CONTEXT ( 'configuration controlled 3d designs of mechanical parts and assemblies' ) ;
#50 = DATE_AND_TIME ( #143, #8 ) ;
#51 = CC_DESIGN_DATE_AND_TIME_ASSIGNMENT ( #201, #214, ( #65 ) ) ;
#52 = CONICAL_SURFACE ( 'NONE', #140, 1.499999999999997558, 0.7853981633974573828 ) ;
#53 = APPROVAL_ROLE ( '' ) ;
#54 = ORIENTED_EDGE ( 'NONE', *, *, #236, .T. ) ;
#55 = CONICAL_SURFACE ( 'NONE', #192, 1.689662432702592643, 0.5235987755982971503 ) ;
#56 = LOCAL_TIME ( 14, 2, 0.0000000000000000000, #67 ) ;
#57 = ORIENTED_EDGE ( 'NONE', *, *, #133, .T. ) ;
#58 = EDGE_LOOP ( 'NONE', ( #112 ) ) ;
#59 = CIRCLE ( 'NONE', #63, 1.833999999999998520 ) ;
#60 = PLANE ( 'NONE',  #165 ) ;
#61 = VERTEX_POINT ( 'NONE', #43 ) ;
#62 = DIRECTION ( 'NONE',  ( -3.360401211580795858E-30, 1.000000000000000000, -9.458688527681647197E-16 ) ) ;
#63 = AXIS2_PLACEMENT_3D ( 'NONE', #13, #153, #75 ) ;
#64 = CIRCLE ( 'NONE', #220, 1.833999999999999853 ) ;
#65 = PRODUCT_DEFINITION ( 'UNKNOWN', '', #110, #241 ) ;
#66 = DIRECTION ( 'NONE',  ( 0.0000000000000000000, 1.000000000000000000, 0.0000000000000000000 ) ) ;
#67 = COORDINATED_UNIVERSAL_TIME_OFFSET ( 1, 0, .AHEAD. ) ;
#68 = PRODUCT ( '321270', '321270', '', ( #166 ) ) ;
#69 = PERSON_AND_ORGANIZATION ( #207, #202 ) ;
#70 = PERSON_AND_ORGANIZATION_ROLE ( 'design_supplier' ) ;
#71 = ADVANCED_FACE ( 'NONE', ( #243 ), #172, .T. ) ;
#72 = APPLICATION_PROTOCOL_DEFINITION ( 'international standard', 'config_control_design', 1994, #125 ) ;
#73 = MANIFOLD_SOLID_BREP ( 'Corps-Déplacer/Copier1[1]', #171 ) ;
#74 = CALENDAR_DATE ( 2021, 26, 11 ) ;
#75 = DIRECTION ( 'NONE',  ( -1.995238219376091213E-30, 1.000000000000000000, -5.616096313310960212E-16 ) ) ;
#76 = FACE_OUTER_BOUND ( 'NONE', #209, .T. ) ;
#77 = CARTESIAN_POINT ( 'NONE',  ( 2.433562493173664138E-13, -7.316389877191761450E-15, 69.70000000000001705 ) ) ;
#78 = AXIS2_PLACEMENT_3D ( 'NONE', #187, #34, #36 ) ;
#79 = CC_DESIGN_APPROVAL ( #199, ( #42 ) ) ;
#80 = CARTESIAN_POINT ( 'NONE',  ( 3.667461350254484233E-14, 1.833999999999998742, 10.50402678500255149 ) ) ;
#81 = CARTESIAN_POINT ( 'NONE',  ( 3.667461350254484864E-14, 5.999783037949188923E-15, 10.50402678500255327 ) ) ;
#82 = DIRECTION ( 'NONE',  ( -1.994295230093710025E-30, 1.000000000000000000, -5.711888555459096216E-16 ) ) ;
#83 = LOCAL_TIME ( 14, 2, 0.0000000000000000000, #123 ) ;
#84 = VERTEX_POINT ( 'NONE', #142 ) ;
#85 = PERSON_AND_ORGANIZATION ( #207, #202 ) ;
#86 = APPROVAL ( #28, 'UNSPECIFIED' ) ;
#87 = CALENDAR_DATE ( 2021, 26, 11 ) ;
#88 = AXIS2_PLACEMENT_3D ( 'NONE', #44, #141, #99 ) ;
#89 = APPLICATION_PROTOCOL_DEFINITION ( 'international standard', 'config_control_design', 1994, #49 ) ;
#90 = CC_DESIGN_PERSON_AND_ORGANIZATION_ASSIGNMENT ( #85, #9, ( #65 ) ) ;
#91 = DATE_AND_TIME ( #74, #238 ) ;
#92 = EDGE_CURVE ( 'NONE', #61, #61, #227, .T. ) ;
#93 = DIRECTION ( 'NONE',  ( -3.491481338843133355E-15, 1.049697256412017316E-16, -1.000000000000000000 ) ) ;
#94 = FACE_OUTER_BOUND ( 'NONE', #18, .T. ) ;
#95 = EDGE_LOOP ( 'NONE', ( #150 ) ) ;
#96 = AXIS2_PLACEMENT_3D ( 'NONE', #134, #136, #115 ) ;
#97 = DIRECTION ( 'NONE',  ( 3.664998382197393967E-31, 1.000000000000000000, 1.049697256412017316E-16 ) ) ;
#98 = ORIENTED_EDGE ( 'NONE', *, *, #188, .T. ) ;
#99 = DIRECTION ( 'NONE',  ( 0.0000000000000000000, 1.000000000000000000, 0.0000000000000000000 ) ) ;
#100 = AXIS2_PLACEMENT_3D ( 'NONE', #237, #31, #126 ) ;
#101 = DIRECTION ( 'NONE',  ( 0.0000000000000000000, 1.000000000000000000, 0.0000000000000000000 ) ) ;
#102 = DIRECTION ( 'NONE',  ( -3.491481338843133355E-15, 1.049697256412017316E-16, -1.000000000000000000 ) ) ;
#103 = DIRECTION ( 'NONE',  ( 3.491481338843133355E-15, 5.711888555459096216E-16, 1.000000000000000000 ) ) ;
#104 = ADVANCED_FACE ( 'NONE', ( #240 ), #206, .T. ) ;
#105 = FACE_BOUND ( 'NONE', #95, .T. ) ;
#106 = COORDINATED_UNIVERSAL_TIME_OFFSET ( 1, 0, .AHEAD. ) ;
#107 = CC_DESIGN_PERSON_AND_ORGANIZATION_ASSIGNMENT ( #69, #164, ( #68 ) ) ;
#108 = APPROVAL_STATUS ( 'not_yet_approved' ) ;
#109 = SECURITY_CLASSIFICATION_LEVEL ( 'unclassified' ) ;
#110 = PRODUCT_DEFINITION_FORMATION_WITH_SPECIFIED_SOURCE ( 'ANY', '', #68, .NOT_KNOWN. ) ;
#111 = EDGE_LOOP ( 'NONE', ( #149 ) ) ;
#112 = ORIENTED_EDGE ( 'NONE', *, *, #170, .F. ) ;
#113 = ORIENTED_EDGE ( 'NONE', *, *, #159, .T. ) ;
#114 = CIRCLE ( 'NONE', #168, 1.199999999999997513 ) ;
#115 = DIRECTION ( 'NONE',  ( -1.994295230093709674E-30, 1.000000000000000000, -5.711888555459096216E-16 ) ) ;
#116 = DIRECTION ( 'NONE',  ( 1.994295230093709674E-30, -1.000000000000000000, 5.711888555459096216E-16 ) ) ;
#117 = CARTESIAN_POINT ( 'NONE',  ( 3.180412147368998246E-30, 5.202994942032037498E-31, 9.109062425700361862E-16 ) ) ;
#118 = DIRECTION ( 'NONE',  ( -3.491481338843133355E-15, 1.049697256412017316E-16, -1.000000000000000000 ) ) ;
#119 = DIRECTION ( 'NONE',  ( -3.491481338843133355E-15, 1.049697256412017316E-16, -1.000000000000000000 ) ) ;
#120 = DIRECTION ( 'NONE',  ( 3.491481338843133355E-15, 5.711888555459096216E-16, 1.000000000000000000 ) ) ;
#121 = DATE_AND_TIME ( #87, #56 ) ;
#122 = COORDINATED_UNIVERSAL_TIME_OFFSET ( 1, 0, .AHEAD. ) ;
#123 = COORDINATED_UNIVERSAL_TIME_OFFSET ( 1, 0, .AHEAD. ) ;
#124 = ADVANCED_FACE ( 'NONE', ( #94, #76 ), #17, .T. ) ;
#125 = APPLICATION_CONTEXT ( 'configuration controlled 3d designs of mechanical parts and assemblies' ) ;
#126 = DIRECTION ( 'NONE',  ( 1.000000000000000000, 0.0000000000000000000, 0.0000000000000000000 ) ) ;
#127 = CC_DESIGN_APPROVAL ( #221, ( #65 ) ) ;
#128 = DATE_AND_TIME ( #46, #83 ) ;
#129 = ORIENTED_EDGE ( 'NONE', *, *, #92, .T. ) ;
#130 = AXIS2_PLACEMENT_3D ( 'NONE', #177, #24, #45 ) ;
#131 = EDGE_LOOP ( 'NONE', ( #129 ) ) ;
#132 = EDGE_LOOP ( 'NONE', ( #242 ) ) ;
#133 = EDGE_CURVE ( 'NONE', #213, #213, #215, .T. ) ;
#134 = CARTESIAN_POINT ( 'NONE',  ( -1.779479656322815237E-30, 1.689662432702592643, -5.096632299092933148E-16 ) ) ;
#135 = UNCERTAINTY_MEASURE_WITH_UNIT (LENGTH_MEASURE( 1.000000000000000082E-05 ), #226, 'distance_accuracy_value', 'NONE');
#136 = DIRECTION ( 'NONE',  ( -3.491481338843133355E-15, -5.711888555459096216E-16, -1.000000000000000000 ) ) ;
#137 = CARTESIAN_POINT ( 'NONE',  ( 3.667461350254483602E-14, 5.999783037949188134E-15, 10.50402678500254972 ) ) ;
#138 = ADVANCED_FACE ( 'NONE', ( #223, #197 ), #55, .T. ) ;
#139 = DIRECTION ( 'NONE',  ( -1.994295230093709674E-30, 1.000000000000000000, -5.711888555459096216E-16 ) ) ;
#140 = AXIS2_PLACEMENT_3D ( 'NONE', #77, #118, #66 ) ;
#141 = DIRECTION ( 'NONE',  ( -3.491481338843133355E-15, 1.049697256412017316E-16, -1.000000000000000000 ) ) ;
#142 = CARTESIAN_POINT ( 'NONE',  ( 8.728703347107831416E-16, 1.833999999999998742, 0.2499999999999999445 ) ) ;
#143 = CALENDAR_DATE ( 2021, 26, 11 ) ;
#144 = CIRCLE ( 'NONE', #181, 1.689662432702592643 ) ;
#145 = PERSON_AND_ORGANIZATION ( #207, #202 ) ;
#146 = APPROVAL_DATE_TIME ( #91, #86 ) ;
#147 = PERSON_AND_ORGANIZATION ( #207, #202 ) ;
#148 = ADVANCED_FACE ( 'NONE', ( #23, #211 ), #161, .T. ) ;
#149 = ORIENTED_EDGE ( 'NONE', *, *, #188, .F. ) ;
#150 = ORIENTED_EDGE ( 'NONE', *, *, #170, .T. ) ;
#151 = DIRECTION ( 'NONE',  ( -3.491481338843133355E-15, 1.049697256412017316E-16, -1.000000000000000000 ) ) ;
#152 = ADVANCED_FACE ( 'NONE', ( #105, #180 ), #52, .T. ) ;
#153 = DIRECTION ( 'NONE',  ( -3.491481338843133355E-15, -5.711888555459096216E-16, -1.000000000000000000 ) ) ;
#154 = ORIENTED_EDGE ( 'NONE', *, *, #92, .F. ) ;
#155 = FACE_OUTER_BOUND ( 'NONE', #132, .T. ) ;
#156 = AXIS2_PLACEMENT_3D ( 'NONE', #81, #162, #62 ) ;
#157 = CARTESIAN_POINT ( 'NONE',  ( 3.667461350254484233E-14, -1.102604809749552175E-15, 10.50402678500255149 ) ) ;
#158 = DIRECTION ( 'NONE',  ( 3.664998382197393967E-31, 1.000000000000000000, 1.049697256412017316E-16 ) ) ;
#159 = EDGE_CURVE ( 'NONE', #190, #190, #64, .T. ) ;
#160 = FACE_OUTER_BOUND ( 'NONE', #12, .T. ) ;
#161 = CONICAL_SURFACE ( 'NONE', #88, 1.833999999999999853, 0.5235987755982927094 ) ;
#162 = DIRECTION ( 'NONE',  ( -3.491481338843133355E-15, -5.711888555459096216E-16, -1.000000000000000000 ) ) ;
#163 = PERSON_AND_ORGANIZATION ( #207, #202 ) ;
#164 = PERSON_AND_ORGANIZATION_ROLE ( 'design_owner' ) ;
#165 = AXIS2_PLACEMENT_3D ( 'NONE', #224, #21, #158 ) ;
#166 = MECHANICAL_CONTEXT ( 'NONE', #125, 'mechanical' ) ;
#167 =( NAMED_UNIT ( * ) PLANE_ANGLE_UNIT ( ) SI_UNIT ( $, .RADIAN. ) );
#168 = AXIS2_PLACEMENT_3D ( 'NONE', #229, #119, #194 ) ;
#169 = DIRECTION ( 'NONE',  ( 0.0000000000000000000, 1.000000000000000000, 0.0000000000000000000 ) ) ;
#170 = EDGE_CURVE ( 'NONE', #19, #19, #114, .T. ) ;
#171 = CLOSED_SHELL ( 'NONE', ( #104, #152, #124, #148, #195 ) ) ;
#172 = PLANE ( 'NONE',  #96 ) ;
#173 = ORIENTED_EDGE ( 'NONE', *, *, #159, .F. ) ;
#174 = ADVANCED_FACE ( 'NONE', ( #175, #155 ), #4, .T. ) ;
#175 = FACE_OUTER_BOUND ( 'NONE', #37, .T. ) ;
#176 = CARTESIAN_POINT ( 'NONE',  ( -1.892735826383161356E-31, 1.689662432702592643, -5.421010862427522170E-17 ) ) ;
#177 = CARTESIAN_POINT ( 'NONE',  ( 2.433562493173664138E-13, -7.316389877191761450E-15, 69.70000000000001705 ) ) ;
#178 = CC_DESIGN_DATE_AND_TIME_ASSIGNMENT ( #128, #203, ( #42 ) ) ;
#179 = PLANE ( 'NONE',  #33 ) ;
#180 = FACE_OUTER_BOUND ( 'NONE', #205, .T. ) ;
#181 = AXIS2_PLACEMENT_3D ( 'NONE', #117, #191, #82 ) ;
#182 = APPROVAL_ROLE ( '' ) ;
#183 = CLOSED_SHELL ( 'NONE', ( #230, #174, #138, #71 ) ) ;
#184 = EDGE_LOOP ( 'NONE', ( #32 ) ) ;
#185 = EDGE_LOOP ( 'NONE', ( #173 ) ) ;
#186 = LOCAL_TIME ( 14, 2, 0.0000000000000000000, #122 ) ;
#187 = CARTESIAN_POINT ( 'NONE',  ( 2.444036937190193601E-13, -7.347880794884121511E-15, 70.00000000000000000 ) ) ;
#188 = EDGE_CURVE ( 'NONE', #22, #22, #144, .T. ) ;
#189 = CARTESIAN_POINT ( 'NONE',  ( 3.869445280877825814E-14, -1.163330317703974832E-15, 11.08253175473057794 ) ) ;
#190 = VERTEX_POINT ( 'NONE', #40 ) ;
#191 = DIRECTION ( 'NONE',  ( -3.491481338843133355E-15, -5.711888555459096216E-16, -1.000000000000000000 ) ) ;
#192 = AXIS2_PLACEMENT_3D ( 'NONE', #212, #103, #116 ) ;
#193 = CC_DESIGN_SECURITY_CLASSIFICATION ( #42, ( #110 ) ) ;
#194 = DIRECTION ( 'NONE',  ( 0.0000000000000000000, 1.000000000000000000, 0.0000000000000000000 ) ) ;
#195 = ADVANCED_FACE ( 'NONE', ( #160 ), #60, .T. ) ;
#196 = FACE_OUTER_BOUND ( 'NONE', #38, .T. ) ;
#197 = FACE_BOUND ( 'NONE', #111, .T. ) ;
#198 = AXIS2_PLACEMENT_3D ( 'NONE', #189, #93, #169 ) ;
#199 = APPROVAL ( #108, 'UNSPECIFIED' ) ;
#200 = PERSON_AND_ORGANIZATION_ROLE ( 'classification_officer' ) ;
#201 = DATE_AND_TIME ( #234, #186 ) ;
#202 = ORGANIZATION ( 'UNSPECIFIED', 'UNSPECIFIED', '' ) ;
#203 = DATE_TIME_ROLE ( 'classification_date' ) ;
#204 = APPROVAL_DATE_TIME ( #121, #199 ) ;
#205 = EDGE_LOOP ( 'NONE', ( #208 ) ) ;
#206 = PLANE ( 'NONE',  #78 ) ;
#207 = PERSON ( 'UNSPECIFIED', 'UNSPECIFIED', 'UNSPECIFIED', ('UNSPECIFIED'), ('UNSPECIFIED'), ('UNSPECIFIED') ) ;
#208 = ORIENTED_EDGE ( 'NONE', *, *, #133, .F. ) ;
#209 = EDGE_LOOP ( 'NONE', ( #154 ) ) ;
#210 = CARTESIAN_POINT ( 'NONE',  ( 2.433562493173664138E-13, 1.499999999999990230, 69.70000000000001705 ) ) ;
#211 = FACE_OUTER_BOUND ( 'NONE', #185, .T. ) ;
#212 = CARTESIAN_POINT ( 'NONE',  ( 3.180412147368998246E-30, 5.202994942032037498E-31, 9.109062425700361862E-16 ) ) ;
#213 = VERTEX_POINT ( 'NONE', #210 ) ;
#214 = DATE_TIME_ROLE ( 'creation_date' ) ;
#215 = CIRCLE ( 'NONE', #130, 1.499999999999997558 ) ;
#216 =( GEOMETRIC_REPRESENTATION_CONTEXT ( 3 ) GLOBAL_UNCERTAINTY_ASSIGNED_CONTEXT ( ( #135 ) ) GLOBAL_UNIT_ASSIGNED_CONTEXT ( ( #226, #167, #219 ) ) REPRESENTATION_CONTEXT ( 'NONE', 'WORKASPACE' ) );
#217 = COORDINATED_UNIVERSAL_TIME_OFFSET ( 1, 0, .AHEAD. ) ;
#218 = CC_DESIGN_PERSON_AND_ORGANIZATION_ASSIGNMENT ( #163, #70, ( #110 ) ) ;
#219 =( NAMED_UNIT ( * ) SI_UNIT ( $, .STERADIAN. ) SOLID_ANGLE_UNIT ( ) );
#220 = AXIS2_PLACEMENT_3D ( 'NONE', #157, #102, #101 ) ;
#221 = APPROVAL ( #48, 'UNSPECIFIED' ) ;
#222 = CARTESIAN_POINT ( 'NONE',  ( 0.0000000000000000000, 0.0000000000000000000, 0.0000000000000000000 ) ) ;
#223 = FACE_OUTER_BOUND ( 'NONE', #184, .T. ) ;
#224 = CARTESIAN_POINT ( 'NONE',  ( 3.667461350254483602E-14, 1.833999999999998742, 10.50402678500254972 ) ) ;
#225 = CARTESIAN_POINT ( 'NONE',  ( 2.444036937190193601E-13, 1.199999999999990186, 70.00000000000000000 ) ) ;
#226 =( LENGTH_UNIT ( ) NAMED_UNIT ( * ) SI_UNIT ( .MILLI., .METRE. ) );
#227 = CIRCLE ( 'NONE', #198, 1.499999999999992673 ) ;
#228 = APPROVAL_PERSON_ORGANIZATION ( #10, #221, #232 ) ;
#229 = CARTESIAN_POINT ( 'NONE',  ( 2.444036937190193601E-13, -7.347880794884121511E-15, 70.00000000000000000 ) ) ;
#230 = ADVANCED_FACE ( 'NONE', ( #196 ), #179, .T. ) ;
#231 = PERSON_AND_ORGANIZATION_ROLE ( 'creator' ) ;
#232 = APPROVAL_ROLE ( '' ) ;
#233 = AXIS2_PLACEMENT_3D ( 'NONE', #222, #151, #97 ) ;
#234 = CALENDAR_DATE ( 2021, 26, 11 ) ;
#235 = MANIFOLD_SOLID_BREP ( 'Corps-Déplacer/Copier1[2]', #183 ) ;
#236 = EDGE_CURVE ( 'NONE', #2, #2, #29, .T. ) ;
#237 = CARTESIAN_POINT ( 'NONE',  ( 0.0000000000000000000, 0.0000000000000000000, 0.0000000000000000000 ) ) ;
#238 = LOCAL_TIME ( 14, 2, 0.0000000000000000000, #106 ) ;
#239 = CC_DESIGN_PERSON_AND_ORGANIZATION_ASSIGNMENT ( #147, #200, ( #42 ) ) ;
#240 = FACE_OUTER_BOUND ( 'NONE', #58, .T. ) ;
#241 = DESIGN_CONTEXT ( 'detailed design', #49, 'design' ) ;
#242 = ORIENTED_EDGE ( 'NONE', *, *, #35, .F. ) ;
#243 = FACE_OUTER_BOUND ( 'NONE', #1, .T. ) ;
ENDSEC;
END-ISO-10303-21;
