ISO-10303-21;
HEADER;
FILE_DESCRIPTION (( 'STEP AP203' ),
    '1' );
FILE_NAME ('321269.step',
    '2021-11-26T13:02:00',
    ( '' ),
    ( '' ),
    'SwSTEP 2.0',
    'SolidWorks 2019',
    '' );
FILE_SCHEMA (( 'CONFIG_CONTROL_DESIGN' ));
ENDSEC;

DATA;
#1 = DIRECTION ( 'NONE',  ( 3.664998382197393967E-31, 1.000000000000000000, 1.049697256412017316E-16 ) ) ;
#2 = CARTESIAN_POINT ( 'NONE',  ( 0.0000000000000000000, 0.0000000000000000000, 0.0000000000000000000 ) ) ;
#3 = ORIENTED_EDGE ( 'NONE', *, *, #88, .F. ) ;
#4 = CONICAL_SURFACE ( 'NONE', #114, 1.828999999999999737, 0.5235987755982929315 ) ;
#5 = SECURITY_CLASSIFICATION ( '', '', #226 ) ;
#6 = EDGE_LOOP ( 'NONE', ( #141 ) ) ;
#7 = CYLINDRICAL_SURFACE ( 'NONE', #162, 1.828999999999995518 ) ;
#8 = PRODUCT_DEFINITION ( 'UNKNOWN', '', #210, #154 ) ;
#9 = CARTESIAN_POINT ( 'NONE',  ( 0.0000000000000000000, 0.0000000000000000000, 0.0000000000000000000 ) ) ;
#10 = AXIS2_PLACEMENT_3D ( 'NONE', #2, #55, #191 ) ;
#11 = ORIENTED_EDGE ( 'NONE', *, *, #52, .F. ) ;
#12 = FACE_OUTER_BOUND ( 'NONE', #99, .T. ) ;
#13 = DIRECTION ( 'NONE',  ( 3.491481338843133355E-15, 5.705165449326650817E-16, 1.000000000000000000 ) ) ;
#14 = DIRECTION ( 'NONE',  ( 1.991947870133660177E-30, -1.000000000000000000, 5.705165449326650817E-16 ) ) ;
#15 = DIRECTION ( 'NONE',  ( -3.491481338843133355E-15, 1.049697256412017316E-16, -1.000000000000000000 ) ) ;
#16 = APPROVAL_ROLE ( '' ) ;
#17 = AXIS2_PLACEMENT_3D ( 'NONE', #178, #213, #44 ) ;
#18 = CALENDAR_DATE ( 2021, 26, 11 ) ;
#19 = CALENDAR_DATE ( 2021, 26, 11 ) ;
#20 = APPLICATION_PROTOCOL_DEFINITION ( 'international standard', 'config_control_design', 1994, #132 ) ;
#21 = COORDINATED_UNIVERSAL_TIME_OFFSET ( 1, 0, .AHEAD. ) ;
#22 = EDGE_LOOP ( 'NONE', ( #239 ) ) ;
#23 = EDGE_LOOP ( 'NONE', ( #96 ) ) ;
#24 = CIRCLE ( 'NONE', #17, 1.499999999999992673 ) ;
#25 = FACE_OUTER_BOUND ( 'NONE', #63, .T. ) ;
#26 = APPROVAL ( #231, 'UNSPECIFIED' ) ;
#27 = DIRECTION ( 'NONE',  ( -1.991947870133660177E-30, 1.000000000000000000, -5.705165449326650817E-16 ) ) ;
#28 = ORIENTED_EDGE ( 'NONE', *, *, #227, .T. ) ;
#29 = DIRECTION ( 'NONE',  ( -3.491481338843133355E-15, 1.049697256412017316E-16, -1.000000000000000000 ) ) ;
#30 = PLANE ( 'NONE',  #130 ) ;
#31 = ADVANCED_BREP_SHAPE_REPRESENTATION ( '321269', ( #107, #32, #10 ), #215 ) ;
#32 = MANIFOLD_SOLID_BREP ( 'Corps-Déplacer/Copier1[2]', #120 ) ;
#33 = CARTESIAN_POINT ( 'NONE',  ( 3.670485061790762369E-14, 1.828999999999998627, 10.51268703904039725 ) ) ;
#34 = DIRECTION ( 'NONE',  ( 0.0000000000000000000, 1.000000000000000000, 0.0000000000000000000 ) ) ;
#35 = DIRECTION ( 'NONE',  ( 0.0000000000000000000, 1.000000000000000000, 0.0000000000000000000 ) ) ;
#36 = PERSON_AND_ORGANIZATION_ROLE ( 'design_owner' ) ;
#37 = PERSON_AND_ORGANIZATION_ROLE ( 'classification_officer' ) ;
#38 = CC_DESIGN_PERSON_AND_ORGANIZATION_ASSIGNMENT ( #56, #37, ( #5 ) ) ;
#39 = DATE_AND_TIME ( #19, #70 ) ;
#40 = COORDINATED_UNIVERSAL_TIME_OFFSET ( 1, 0, .AHEAD. ) ;
#41 = CIRCLE ( 'NONE', #80, 1.828999999999998405 ) ;
#42 = EDGE_CURVE ( 'NONE', #148, #148, #73, .T. ) ;
#43 = DIRECTION ( 'NONE',  ( -3.491481338843133355E-15, 1.049697256412017316E-16, -1.000000000000000000 ) ) ;
#44 = DIRECTION ( 'NONE',  ( 0.0000000000000000000, 1.000000000000000000, 0.0000000000000000000 ) ) ;
#45 = EDGE_LOOP ( 'NONE', ( #62 ) ) ;
#46 = FACE_OUTER_BOUND ( 'NONE', #101, .T. ) ;
#47 = DIRECTION ( 'NONE',  ( 3.491481338843133355E-15, 5.705165449326650817E-16, 1.000000000000000000 ) ) ;
#48 = CC_DESIGN_DATE_AND_TIME_ASSIGNMENT ( #91, #172, ( #5 ) ) ;
#49 = AXIS2_PLACEMENT_3D ( 'NONE', #240, #13, #82 ) ;
#50 = CARTESIAN_POINT ( 'NONE',  ( -1.892735826383161356E-31, 1.684662432702592527, -5.421010862427522170E-17 ) ) ;
#51 = DIRECTION ( 'NONE',  ( -3.491481338843133355E-15, 1.049697256412017316E-16, -1.000000000000000000 ) ) ;
#52 = EDGE_CURVE ( 'NONE', #126, #126, #41, .T. ) ;
#53 = CC_DESIGN_SECURITY_CLASSIFICATION ( #5, ( #210 ) ) ;
#54 = DIRECTION ( 'NONE',  ( -3.491481338843133355E-15, 1.049697256412017316E-16, -1.000000000000000000 ) ) ;
#55 = DIRECTION ( 'NONE',  ( 0.0000000000000000000, 0.0000000000000000000, 1.000000000000000000 ) ) ;
#56 = PERSON_AND_ORGANIZATION ( #116, #163 ) ;
#57 = AXIS2_PLACEMENT_3D ( 'NONE', #147, #15, #1 ) ;
#58 = APPROVAL_ROLE ( '' ) ;
#59 = COORDINATED_UNIVERSAL_TIME_OFFSET ( 1, 0, .AHEAD. ) ;
#60 = ADVANCED_FACE ( 'NONE', ( #196, #155 ), #4, .T. ) ;
#61 = LOCAL_TIME ( 14, 2, 0.0000000000000000000, #169 ) ;
#62 = ORIENTED_EDGE ( 'NONE', *, *, #136, .T. ) ;
#63 = EDGE_LOOP ( 'NONE', ( #158 ) ) ;
#64 = FACE_OUTER_BOUND ( 'NONE', #6, .T. ) ;
#65 = CARTESIAN_POINT ( 'NONE',  ( 3.166486162077804086E-30, 5.174115423925764941E-31, 9.069176818590662682E-16 ) ) ;
#66 = CARTESIAN_POINT ( 'NONE',  ( 3.670485061790762369E-14, -1.103513874239887899E-15, 10.51268703904039725 ) ) ;
#67 = FACE_OUTER_BOUND ( 'NONE', #177, .T. ) ;
#68 = CARTESIAN_POINT ( 'NONE',  ( 2.444036937190193601E-13, -7.347880794884121511E-15, 70.00000000000000000 ) ) ;
#69 = AXIS2_PLACEMENT_3D ( 'NONE', #68, #159, #223 ) ;
#70 = LOCAL_TIME ( 14, 2, 0.0000000000000000000, #40 ) ;
#71 = DATE_TIME_ROLE ( 'creation_date' ) ;
#72 = DATE_AND_TIME ( #18, #195 ) ;
#73 = CIRCLE ( 'NONE', #129, 1.684662432702592527 ) ;
#74 = APPROVAL_STATUS ( 'not_yet_approved' ) ;
#75 = DIRECTION ( 'NONE',  ( -3.491481338843133355E-15, -5.705165449326650817E-16, -1.000000000000000000 ) ) ;
#76 = DIRECTION ( 'NONE',  ( -3.491481338843133355E-15, -5.705165449326650817E-16, -1.000000000000000000 ) ) ;
#77 = CC_DESIGN_PERSON_AND_ORGANIZATION_ASSIGNMENT ( #111, #175, ( #210 ) ) ;
#78 = DIRECTION ( 'NONE',  ( -3.491481338843133355E-15, -5.705165449326650817E-16, -1.000000000000000000 ) ) ;
#79 = DIRECTION ( 'NONE',  ( -3.491481338843133355E-15, -5.705165449326650817E-16, -1.000000000000000000 ) ) ;
#80 = AXIS2_PLACEMENT_3D ( 'NONE', #100, #76, #179 ) ;
#81 = CARTESIAN_POINT ( 'NONE',  ( 3.670485061790762369E-14, -1.103513874239887899E-15, 10.51268703904039725 ) ) ;
#82 = DIRECTION ( 'NONE',  ( 1.991947870133660527E-30, -1.000000000000000000, 5.705165449326650817E-16 ) ) ;
#83 = CIRCLE ( 'NONE', #236, 1.499999999999997558 ) ;
#84 = APPROVAL_PERSON_ORGANIZATION ( #112, #218, #16 ) ;
#85 = CARTESIAN_POINT ( 'NONE',  ( 2.433562493173664138E-13, 1.499999999999990230, 69.70000000000001705 ) ) ;
#86 =( NAMED_UNIT ( * ) PLANE_ANGLE_UNIT ( ) SI_UNIT ( $, .RADIAN. ) );
#87 = CYLINDRICAL_SURFACE ( 'NONE', #225, 1.499999999999995337 ) ;
#88 = EDGE_CURVE ( 'NONE', #103, #103, #24, .T. ) ;
#89 = CALENDAR_DATE ( 2021, 26, 11 ) ;
#90 = PERSON_AND_ORGANIZATION_ROLE ( 'creator' ) ;
#91 = DATE_AND_TIME ( #209, #61 ) ;
#92 = ADVANCED_FACE ( 'NONE', ( #25, #46 ), #7, .T. ) ;
#93 = CONICAL_SURFACE ( 'NONE', #49, 1.684662432702592527, 0.5235987755982971503 ) ;
#94 = APPROVAL_DATE_TIME ( #189, #26 ) ;
#95 = APPROVAL_ROLE ( '' ) ;
#96 = ORIENTED_EDGE ( 'NONE', *, *, #170, .F. ) ;
#97 = ADVANCED_FACE ( 'NONE', ( #64 ), #140, .T. ) ;
#98 = ORIENTED_EDGE ( 'NONE', *, *, #136, .F. ) ;
#99 = EDGE_LOOP ( 'NONE', ( #3 ) ) ;
#100 = CARTESIAN_POINT ( 'NONE',  ( 8.728703347107867901E-16, 1.426291362331668374E-16, 0.2500000000000009992 ) ) ;
#101 = EDGE_LOOP ( 'NONE', ( #11 ) ) ;
#102 = FACE_OUTER_BOUND ( 'NONE', #211, .T. ) ;
#103 = VERTEX_POINT ( 'NONE', #145 ) ;
#104 = VERTEX_POINT ( 'NONE', #85 ) ;
#105 = CIRCLE ( 'NONE', #203, 1.199999999999997513 ) ;
#106 = APPROVAL_PERSON_ORGANIZATION ( #151, #26, #58 ) ;
#107 = MANIFOLD_SOLID_BREP ( 'Corps-Déplacer/Copier1[1]', #233 ) ;
#108 = PLANE ( 'NONE',  #57 ) ;
#109 = ADVANCED_FACE ( 'NONE', ( #238, #67 ), #220, .T. ) ;
#110 = APPROVAL_STATUS ( 'not_yet_approved' ) ;
#111 = PERSON_AND_ORGANIZATION ( #116, #163 ) ;
#112 = PERSON_AND_ORGANIZATION ( #116, #163 ) ;
#113 = CALENDAR_DATE ( 2021, 26, 11 ) ;
#114 = AXIS2_PLACEMENT_3D ( 'NONE', #81, #43, #217 ) ;
#115 = ORIENTED_EDGE ( 'NONE', *, *, #88, .T. ) ;
#116 = PERSON ( 'UNSPECIFIED', 'UNSPECIFIED', 'UNSPECIFIED', ('UNSPECIFIED'), ('UNSPECIFIED'), ('UNSPECIFIED') ) ;
#117 = LOCAL_TIME ( 14, 2, 0.0000000000000000000, #21 ) ;
#118 = EDGE_LOOP ( 'NONE', ( #115 ) ) ;
#119 = FACE_OUTER_BOUND ( 'NONE', #137, .T. ) ;
#120 = CLOSED_SHELL ( 'NONE', ( #237, #92, #138, #97 ) ) ;
#121 = CARTESIAN_POINT ( 'NONE',  ( 8.728703347107831416E-16, 1.828999999999998627, 0.2499999999999999445 ) ) ;
#122 = CC_DESIGN_PERSON_AND_ORGANIZATION_ASSIGNMENT ( #232, #134, ( #210 ) ) ;
#123 = CARTESIAN_POINT ( 'NONE',  ( 2.444036937190193601E-13, 1.199999999999990186, 70.00000000000000000 ) ) ;
#124 =( LENGTH_UNIT ( ) NAMED_UNIT ( * ) SI_UNIT ( .MILLI., .METRE. ) );
#125 = AXIS2_PLACEMENT_3D ( 'NONE', #66, #51, #200 ) ;
#126 = VERTEX_POINT ( 'NONE', #121 ) ;
#127 = APPROVAL ( #110, 'UNSPECIFIED' ) ;
#128 = APPROVAL_DATE_TIME ( #149, #218 ) ;
#129 = AXIS2_PLACEMENT_3D ( 'NONE', #65, #75, #27 ) ;
#130 = AXIS2_PLACEMENT_3D ( 'NONE', #202, #47, #14 ) ;
#131 = APPROVAL_DATE_TIME ( #72, #127 ) ;
#132 = APPLICATION_CONTEXT ( 'configuration controlled 3d designs of mechanical parts and assemblies' ) ;
#133 = COORDINATED_UNIVERSAL_TIME_OFFSET ( 1, 0, .AHEAD. ) ;
#134 = PERSON_AND_ORGANIZATION_ROLE ( 'creator' ) ;
#135 = UNCERTAINTY_MEASURE_WITH_UNIT (LENGTH_MEASURE( 1.000000000000000082E-05 ), #124, 'distance_accuracy_value', 'NONE');
#136 = EDGE_CURVE ( 'NONE', #222, #222, #105, .T. ) ;
#137 = EDGE_LOOP ( 'NONE', ( #192 ) ) ;
#138 = ADVANCED_FACE ( 'NONE', ( #102, #142 ), #93, .T. ) ;
#139 = AXIS2_PLACEMENT_3D ( 'NONE', #199, #219, #183 ) ;
#140 = PLANE ( 'NONE',  #214 ) ;
#141 = ORIENTED_EDGE ( 'NONE', *, *, #42, .T. ) ;
#142 = FACE_BOUND ( 'NONE', #156, .T. ) ;
#143 = CARTESIAN_POINT ( 'NONE',  ( 0.0000000000000000000, 0.0000000000000000000, 0.0000000000000000000 ) ) ;
#144 = AXIS2_PLACEMENT_3D ( 'NONE', #186, #29, #182 ) ;
#145 = CARTESIAN_POINT ( 'NONE',  ( 3.869445280877825814E-14, 1.499999999999991562, 11.08253175473057794 ) ) ;
#146 = APPLICATION_CONTEXT ( 'configuration controlled 3d designs of mechanical parts and assemblies' ) ;
#147 = CARTESIAN_POINT ( 'NONE',  ( 3.670485061790761738E-14, 1.828999999999998627, 10.51268703904039548 ) ) ;
#148 = VERTEX_POINT ( 'NONE', #50 ) ;
#149 = DATE_AND_TIME ( #89, #117 ) ;
#150 = PRODUCT_DEFINITION_SHAPE ( 'NONE', 'NONE',  #8 ) ;
#151 = PERSON_AND_ORGANIZATION ( #116, #163 ) ;
#152 = APPLICATION_PROTOCOL_DEFINITION ( 'international standard', 'config_control_design', 1994, #146 ) ;
#153 = ADVANCED_FACE ( 'NONE', ( #243 ), #108, .T. ) ;
#154 = DESIGN_CONTEXT ( 'detailed design', #146, 'design' ) ;
#155 = FACE_OUTER_BOUND ( 'NONE', #22, .T. ) ;
#156 = EDGE_LOOP ( 'NONE', ( #176 ) ) ;
#157 = DIRECTION ( 'NONE',  ( -1.991947870133660177E-30, 1.000000000000000000, -5.705165449326650817E-16 ) ) ;
#158 = ORIENTED_EDGE ( 'NONE', *, *, #170, .T. ) ;
#159 = DIRECTION ( 'NONE',  ( 3.491481338843133355E-15, -1.049697256412017316E-16, 1.000000000000000000 ) ) ;
#160 = PRODUCT_RELATED_PRODUCT_CATEGORY ( 'detail', '', ( #171 ) ) ;
#161 = DIRECTION ( 'NONE',  ( -3.491481338843133355E-15, 1.049697256412017316E-16, -1.000000000000000000 ) ) ;
#162 = AXIS2_PLACEMENT_3D ( 'NONE', #9, #78, #235 ) ;
#163 = ORGANIZATION ( 'UNSPECIFIED', 'UNSPECIFIED', '' ) ;
#164 = VERTEX_POINT ( 'NONE', #242 ) ;
#165 = CC_DESIGN_PERSON_AND_ORGANIZATION_ASSIGNMENT ( #187, #90, ( #8 ) ) ;
#166 = FACE_OUTER_BOUND ( 'NONE', #23, .T. ) ;
#167 = DIRECTION ( 'NONE',  ( 3.664998382197393967E-31, 1.000000000000000000, 1.049697256412017316E-16 ) ) ;
#168 = CC_DESIGN_APPROVAL ( #218, ( #210 ) ) ;
#169 = COORDINATED_UNIVERSAL_TIME_OFFSET ( 1, 0, .AHEAD. ) ;
#170 = EDGE_CURVE ( 'NONE', #201, #201, #194, .T. ) ;
#171 = PRODUCT ( '321269', '321269', '', ( #229 ) ) ;
#172 = DATE_TIME_ROLE ( 'classification_date' ) ;
#173 = SHAPE_DEFINITION_REPRESENTATION ( #150, #31 ) ;
#174 = EDGE_CURVE ( 'NONE', #104, #104, #83, .T. ) ;
#175 = PERSON_AND_ORGANIZATION_ROLE ( 'design_supplier' ) ;
#176 = ORIENTED_EDGE ( 'NONE', *, *, #42, .F. ) ;
#177 = EDGE_LOOP ( 'NONE', ( #193 ) ) ;
#178 = CARTESIAN_POINT ( 'NONE',  ( 3.869445280877825814E-14, -1.163330317703974832E-15, 11.08253175473057794 ) ) ;
#179 = DIRECTION ( 'NONE',  ( -2.000692670495216846E-30, 1.000000000000000000, -5.631449228328213202E-16 ) ) ;
#180 = CC_DESIGN_APPROVAL ( #127, ( #8 ) ) ;
#181 = CARTESIAN_POINT ( 'NONE',  ( 2.433562493173664138E-13, -7.316389877191761450E-15, 69.70000000000001705 ) ) ;
#182 = DIRECTION ( 'NONE',  ( 0.0000000000000000000, 1.000000000000000000, 0.0000000000000000000 ) ) ;
#183 = DIRECTION ( 'NONE',  ( -3.369587655570901634E-30, 1.000000000000000000, -9.484546068763334887E-16 ) ) ;
#184 = LOCAL_TIME ( 14, 2, 0.0000000000000000000, #133 ) ;
#185 = CC_DESIGN_DATE_AND_TIME_ASSIGNMENT ( #39, #71, ( #8 ) ) ;
#186 = CARTESIAN_POINT ( 'NONE',  ( 2.433562493173664138E-13, -7.316389877191761450E-15, 69.70000000000001705 ) ) ;
#187 = PERSON_AND_ORGANIZATION ( #116, #163 ) ;
#188 = CIRCLE ( 'NONE', #125, 1.828999999999999737 ) ;
#189 = DATE_AND_TIME ( #113, #184 ) ;
#190 = CC_DESIGN_APPROVAL ( #26, ( #5 ) ) ;
#191 = DIRECTION ( 'NONE',  ( 1.000000000000000000, 0.0000000000000000000, 0.0000000000000000000 ) ) ;
#192 = ORIENTED_EDGE ( 'NONE', *, *, #174, .T. ) ;
#193 = ORIENTED_EDGE ( 'NONE', *, *, #174, .F. ) ;
#194 = CIRCLE ( 'NONE', #139, 1.828999999999992632 ) ;
#195 = LOCAL_TIME ( 14, 2, 0.0000000000000000000, #59 ) ;
#196 = FACE_BOUND ( 'NONE', #118, .T. ) ;
#197 = EDGE_LOOP ( 'NONE', ( #98 ) ) ;
#198 = ORIENTED_EDGE ( 'NONE', *, *, #52, .T. ) ;
#199 = CARTESIAN_POINT ( 'NONE',  ( 3.670485061790763000E-14, 5.997661887471737257E-15, 10.51268703904039903 ) ) ;
#200 = DIRECTION ( 'NONE',  ( 0.0000000000000000000, 1.000000000000000000, 0.0000000000000000000 ) ) ;
#201 = VERTEX_POINT ( 'NONE', #33 ) ;
#202 = CARTESIAN_POINT ( 'NONE',  ( 3.670485061790761738E-14, 5.997661887471735679E-15, 10.51268703904039548 ) ) ;
#203 = AXIS2_PLACEMENT_3D ( 'NONE', #204, #54, #35 ) ;
#204 = CARTESIAN_POINT ( 'NONE',  ( 2.444036937190193601E-13, -7.347880794884121511E-15, 70.00000000000000000 ) ) ;
#205 = ADVANCED_FACE ( 'NONE', ( #119, #12 ), #87, .T. ) ;
#206 = PERSON_AND_ORGANIZATION ( #116, #163 ) ;
#207 =( NAMED_UNIT ( * ) SI_UNIT ( $, .STERADIAN. ) SOLID_ANGLE_UNIT ( ) );
#208 = CC_DESIGN_PERSON_AND_ORGANIZATION_ASSIGNMENT ( #206, #36, ( #171 ) ) ;
#209 = CALENDAR_DATE ( 2021, 26, 11 ) ;
#210 = PRODUCT_DEFINITION_FORMATION_WITH_SPECIFIED_SOURCE ( 'ANY', '', #171, .NOT_KNOWN. ) ;
#211 = EDGE_LOOP ( 'NONE', ( #198 ) ) ;
#212 = ADVANCED_FACE ( 'NONE', ( #221 ), #224, .T. ) ;
#213 = DIRECTION ( 'NONE',  ( -3.491481338843133355E-15, 1.049697256412017316E-16, -1.000000000000000000 ) ) ;
#214 = AXIS2_PLACEMENT_3D ( 'NONE', #216, #79, #157 ) ;
#215 =( GEOMETRIC_REPRESENTATION_CONTEXT ( 3 ) GLOBAL_UNCERTAINTY_ASSIGNED_CONTEXT ( ( #135 ) ) GLOBAL_UNIT_ASSIGNED_CONTEXT ( ( #124, #86, #207 ) ) REPRESENTATION_CONTEXT ( 'NONE', 'WORKASPACE' ) );
#216 = CARTESIAN_POINT ( 'NONE',  ( -1.772516663677218157E-30, 1.684662432702592527, -5.076689495538083558E-16 ) ) ;
#217 = DIRECTION ( 'NONE',  ( 0.0000000000000000000, 1.000000000000000000, 0.0000000000000000000 ) ) ;
#218 = APPROVAL ( #74, 'UNSPECIFIED' ) ;
#219 = DIRECTION ( 'NONE',  ( -3.491481338843133355E-15, -5.705165449326650817E-16, -1.000000000000000000 ) ) ;
#220 = CONICAL_SURFACE ( 'NONE', #144, 1.499999999999997558, 0.7853981633974573828 ) ;
#221 = FACE_OUTER_BOUND ( 'NONE', #197, .T. ) ;
#222 = VERTEX_POINT ( 'NONE', #123 ) ;
#223 = DIRECTION ( 'NONE',  ( -3.664998382197393967E-31, -1.000000000000000000, -1.049697256412017316E-16 ) ) ;
#224 = PLANE ( 'NONE',  #69 ) ;
#225 = AXIS2_PLACEMENT_3D ( 'NONE', #143, #241, #167 ) ;
#226 = SECURITY_CLASSIFICATION_LEVEL ( 'unclassified' ) ;
#227 = EDGE_CURVE ( 'NONE', #164, #164, #188, .T. ) ;
#228 = PERSON_AND_ORGANIZATION ( #116, #163 ) ;
#229 = MECHANICAL_CONTEXT ( 'NONE', #132, 'mechanical' ) ;
#230 = APPROVAL_PERSON_ORGANIZATION ( #228, #127, #95 ) ;
#231 = APPROVAL_STATUS ( 'not_yet_approved' ) ;
#232 = PERSON_AND_ORGANIZATION ( #116, #163 ) ;
#233 = CLOSED_SHELL ( 'NONE', ( #212, #109, #205, #60, #153 ) ) ;
#234 = EDGE_LOOP ( 'NONE', ( #28 ) ) ;
#235 = DIRECTION ( 'NONE',  ( -1.991947870133660527E-30, 1.000000000000000000, -5.705165449326651803E-16 ) ) ;
#236 = AXIS2_PLACEMENT_3D ( 'NONE', #181, #161, #34 ) ;
#237 = ADVANCED_FACE ( 'NONE', ( #166 ), #30, .T. ) ;
#238 = FACE_BOUND ( 'NONE', #45, .T. ) ;
#239 = ORIENTED_EDGE ( 'NONE', *, *, #227, .F. ) ;
#240 = CARTESIAN_POINT ( 'NONE',  ( 3.166486162077804086E-30, 5.174115423925764941E-31, 9.069176818590662682E-16 ) ) ;
#241 = DIRECTION ( 'NONE',  ( -3.491481338843133355E-15, 1.049697256412017316E-16, -1.000000000000000000 ) ) ;
#242 = CARTESIAN_POINT ( 'NONE',  ( 3.670485061790762369E-14, 1.828999999999998627, 10.51268703904039725 ) ) ;
#243 = FACE_OUTER_BOUND ( 'NONE', #234, .T. ) ;
ENDSEC;
END-ISO-10303-21;
