ISO-10303-21;
HEADER;
FILE_DESCRIPTION (( 'STEP AP203' ),
    '1' );
FILE_NAME ('321268.step',
    '2021-11-26T13:01:59',
    ( '' ),
    ( '' ),
    'SwSTEP 2.0',
    'SolidWorks 2019',
    '' );
FILE_SCHEMA (( 'CONFIG_CONTROL_DESIGN' ));
ENDSEC;

DATA;
#1 = EDGE_LOOP ( 'NONE', ( #33 ) ) ;
#2 = FACE_OUTER_BOUND ( 'NONE', #185, .T. ) ;
#3 = APPROVAL ( #128, 'UNSPECIFIED' ) ;
#4 = CARTESIAN_POINT ( 'NONE',  ( 3.673508773327039242E-14, -1.104422938730223426E-15, 10.52134729307824124 ) ) ;
#5 = CARTESIAN_POINT ( 'NONE',  ( 0.0000000000000000000, 0.0000000000000000000, 0.0000000000000000000 ) ) ;
#6 = CC_DESIGN_APPROVAL ( #39, ( #167 ) ) ;
#7 = DIRECTION ( 'NONE',  ( -3.491481338843133355E-15, 1.049697256412017316E-16, -1.000000000000000000 ) ) ;
#8 = FACE_OUTER_BOUND ( 'NONE', #161, .T. ) ;
#9 = CIRCLE ( 'NONE', #177, 1.499999999999992673 ) ;
#10 = PERSON_AND_ORGANIZATION ( #132, #153 ) ;
#11 = CARTESIAN_POINT ( 'NONE',  ( 0.0000000000000000000, 0.0000000000000000000, 0.0000000000000000000 ) ) ;
#12 = CIRCLE ( 'NONE', #191, 1.823999999999992738 ) ;
#13 = VERTEX_POINT ( 'NONE', #215 ) ;
#14 = FACE_OUTER_BOUND ( 'NONE', #1, .T. ) ;
#15 = ORIENTED_EDGE ( 'NONE', *, *, #67, .T. ) ;
#16 = EDGE_CURVE ( 'NONE', #145, #145, #160, .T. ) ;
#17 = ORIENTED_EDGE ( 'NONE', *, *, #67, .F. ) ;
#18 = ORIENTED_EDGE ( 'NONE', *, *, #16, .T. ) ;
#19 = CC_DESIGN_PERSON_AND_ORGANIZATION_ASSIGNMENT ( #214, #43, ( #53 ) ) ;
#20 = FACE_OUTER_BOUND ( 'NONE', #189, .T. ) ;
#21 = DIRECTION ( 'NONE',  ( 1.989604374456959103E-30, -1.000000000000000000, 5.698453410941598685E-16 ) ) ;
#22 = FACE_OUTER_BOUND ( 'NONE', #242, .T. ) ;
#23 = EDGE_CURVE ( 'NONE', #227, #227, #12, .T. ) ;
#24 = DIRECTION ( 'NONE',  ( -3.491481338843133355E-15, -5.698453410941598685E-16, -1.000000000000000000 ) ) ;
#25 = AXIS2_PLACEMENT_3D ( 'NONE', #11, #176, #155 ) ;
#26 = DIRECTION ( 'NONE',  ( 3.664998382197393967E-31, 1.000000000000000000, 1.049697256412017316E-16 ) ) ;
#27 = CALENDAR_DATE ( 2021, 26, 11 ) ;
#28 = DATE_TIME_ROLE ( 'creation_date' ) ;
#29 = AXIS2_PLACEMENT_3D ( 'NONE', #41, #7, #38 ) ;
#30 = MANIFOLD_SOLID_BREP ( 'Corps-Déplacer/Copier1[2]', #65 ) ;
#31 = ORIENTED_EDGE ( 'NONE', *, *, #179, .F. ) ;
#32 = APPROVAL_DATE_TIME ( #87, #3 ) ;
#33 = ORIENTED_EDGE ( 'NONE', *, *, #141, .T. ) ;
#34 = DIRECTION ( 'NONE',  ( -3.378824463837269588E-30, 1.000000000000000000, -9.510545372679902034E-16 ) ) ;
#35 = EDGE_LOOP ( 'NONE', ( #15 ) ) ;
#36 = PRODUCT ( '321268', '321268', '', ( #103 ) ) ;
#37 = DIRECTION ( 'NONE',  ( -3.491481338843133355E-15, 1.049697256412017316E-16, -1.000000000000000000 ) ) ;
#38 = DIRECTION ( 'NONE',  ( 0.0000000000000000000, 1.000000000000000000, 0.0000000000000000000 ) ) ;
#39 = APPROVAL ( #235, 'UNSPECIFIED' ) ;
#40 = CARTESIAN_POINT ( 'NONE',  ( 3.869445280877825814E-14, 1.499999999999991562, 11.08253175473057794 ) ) ;
#41 = CARTESIAN_POINT ( 'NONE',  ( 2.433562493173664138E-13, -7.316389877191761450E-15, 69.70000000000001705 ) ) ;
#42 = DIRECTION ( 'NONE',  ( -1.989604374456959453E-30, 1.000000000000000000, -5.698453410941598685E-16 ) ) ;
#43 = PERSON_AND_ORGANIZATION_ROLE ( 'classification_officer' ) ;
#44 = CC_DESIGN_PERSON_AND_ORGANIZATION_ASSIGNMENT ( #63, #139, ( #36 ) ) ;
#45 =( NAMED_UNIT ( * ) SI_UNIT ( $, .STERADIAN. ) SOLID_ANGLE_UNIT ( ) );
#46 = COORDINATED_UNIVERSAL_TIME_OFFSET ( 1, 0, .AHEAD. ) ;
#47 = APPROVAL_DATE_TIME ( #138, #39 ) ;
#48 = PRODUCT_RELATED_PRODUCT_CATEGORY ( 'detail', '', ( #36 ) ) ;
#49 = EDGE_LOOP ( 'NONE', ( #18 ) ) ;
#50 = EDGE_LOOP ( 'NONE', ( #86 ) ) ;
#51 = LOCAL_TIME ( 14, 1, 59.00000000000000000, #200 ) ;
#52 = CARTESIAN_POINT ( 'NONE',  ( 3.673508773327039242E-14, 1.823999999999998733, 10.52134729307824124 ) ) ;
#53 = SECURITY_CLASSIFICATION ( '', '', #64 ) ;
#54 = DIRECTION ( 'NONE',  ( 0.0000000000000000000, 1.000000000000000000, 0.0000000000000000000 ) ) ;
#55 = DIRECTION ( 'NONE',  ( -3.491481338843133355E-15, 1.049697256412017316E-16, -1.000000000000000000 ) ) ;
#56 = AXIS2_PLACEMENT_3D ( 'NONE', #4, #73, #151 ) ;
#57 = CARTESIAN_POINT ( 'NONE',  ( 2.444036937190193601E-13, -7.347880794884121511E-15, 70.00000000000000000 ) ) ;
#58 = CC_DESIGN_SECURITY_CLASSIFICATION ( #53, ( #167 ) ) ;
#59 = CC_DESIGN_PERSON_AND_ORGANIZATION_ASSIGNMENT ( #124, #202, ( #167 ) ) ;
#60 = APPLICATION_PROTOCOL_DEFINITION ( 'international standard', 'config_control_design', 1994, #112 ) ;
#61 = CALENDAR_DATE ( 2021, 26, 11 ) ;
#62 = LOCAL_TIME ( 14, 1, 59.00000000000000000, #46 ) ;
#63 = PERSON_AND_ORGANIZATION ( #132, #153 ) ;
#64 = SECURITY_CLASSIFICATION_LEVEL ( 'unclassified' ) ;
#65 = CLOSED_SHELL ( 'NONE', ( #234, #85, #78, #69 ) ) ;
#66 = AXIS2_PLACEMENT_3D ( 'NONE', #174, #197, #209 ) ;
#67 = EDGE_CURVE ( 'NONE', #211, #211, #9, .T. ) ;
#68 = DIRECTION ( 'NONE',  ( -3.491481338843133355E-15, 1.049697256412017316E-16, -1.000000000000000000 ) ) ;
#69 = ADVANCED_FACE ( 'NONE', ( #14 ), #107, .T. ) ;
#70 = CARTESIAN_POINT ( 'NONE',  ( 3.673508773327039242E-14, -1.104422938730223426E-15, 10.52134729307824124 ) ) ;
#71 = EDGE_LOOP ( 'NONE', ( #31 ) ) ;
#72 = CYLINDRICAL_SURFACE ( 'NONE', #157, 1.499999999999995337 ) ;
#73 = DIRECTION ( 'NONE',  ( -3.491481338843133355E-15, 1.049697256412017316E-16, -1.000000000000000000 ) ) ;
#74 = CIRCLE ( 'NONE', #173, 1.499999999999997558 ) ;
#75 =( GEOMETRIC_REPRESENTATION_CONTEXT ( 3 ) GLOBAL_UNCERTAINTY_ASSIGNED_CONTEXT ( ( #94 ) ) GLOBAL_UNIT_ASSIGNED_CONTEXT ( ( #178, #201, #45 ) ) REPRESENTATION_CONTEXT ( 'NONE', 'WORKASPACE' ) );
#76 = DIRECTION ( 'NONE',  ( 3.664998382197393967E-31, 1.000000000000000000, 1.049697256412017316E-16 ) ) ;
#77 = DIRECTION ( 'NONE',  ( -3.491481338843133355E-15, -5.698453410941598685E-16, -1.000000000000000000 ) ) ;
#78 = ADVANCED_FACE ( 'NONE', ( #231, #195 ), #80, .T. ) ;
#79 = FACE_BOUND ( 'NONE', #35, .T. ) ;
#80 = CONICAL_SURFACE ( 'NONE', #210, 1.679662432702592634, 0.5235987755982971503 ) ;
#81 = PERSON_AND_ORGANIZATION ( #132, #153 ) ;
#82 = PERSON_AND_ORGANIZATION_ROLE ( 'creator' ) ;
#83 = LOCAL_TIME ( 14, 1, 59.00000000000000000, #217 ) ;
#84 = CARTESIAN_POINT ( 'NONE',  ( 2.444036937190193601E-13, 1.199999999999990186, 70.00000000000000000 ) ) ;
#85 = ADVANCED_FACE ( 'NONE', ( #20, #193 ), #96, .T. ) ;
#86 = ORIENTED_EDGE ( 'NONE', *, *, #229, .F. ) ;
#87 = DATE_AND_TIME ( #241, #221 ) ;
#88 = AXIS2_PLACEMENT_3D ( 'NONE', #183, #24, #42 ) ;
#89 = ORIENTED_EDGE ( 'NONE', *, *, #23, .T. ) ;
#90 = ORIENTED_EDGE ( 'NONE', *, *, #16, .F. ) ;
#91 = DIRECTION ( 'NONE',  ( 0.0000000000000000000, 1.000000000000000000, 0.0000000000000000000 ) ) ;
#92 = FACE_OUTER_BOUND ( 'NONE', #71, .T. ) ;
#93 = CARTESIAN_POINT ( 'NONE',  ( 8.728703347107867901E-16, 1.424613352735405095E-16, 0.2500000000000009992 ) ) ;
#94 = UNCERTAINTY_MEASURE_WITH_UNIT (LENGTH_MEASURE( 1.000000000000000082E-05 ), #178, 'distance_accuracy_value', 'NONE');
#95 = CONICAL_SURFACE ( 'NONE', #29, 1.499999999999997558, 0.7853981633974573828 ) ;
#96 = CYLINDRICAL_SURFACE ( 'NONE', #66, 1.823999999999995847 ) ;
#97 = CC_DESIGN_DATE_AND_TIME_ASSIGNMENT ( #220, #28, ( #198 ) ) ;
#98 = DIRECTION ( 'NONE',  ( 3.491481338843133355E-15, -1.049697256412017316E-16, 1.000000000000000000 ) ) ;
#99 = CIRCLE ( 'NONE', #133, 1.679662432702592634 ) ;
#100 = LOCAL_TIME ( 14, 1, 59.00000000000000000, #121 ) ;
#101 = VERTEX_POINT ( 'NONE', #84 ) ;
#102 = ADVANCED_FACE ( 'NONE', ( #146, #92 ), #95, .T. ) ;
#103 = MECHANICAL_CONTEXT ( 'NONE', #112, 'mechanical' ) ;
#104 = DATE_AND_TIME ( #61, #51 ) ;
#105 = AXIS2_PLACEMENT_3D ( 'NONE', #70, #68, #143 ) ;
#106 = EDGE_CURVE ( 'NONE', #228, #228, #208, .T. ) ;
#107 = PLANE ( 'NONE',  #88 ) ;
#108 = ORIENTED_EDGE ( 'NONE', *, *, #179, .T. ) ;
#109 = DATE_TIME_ROLE ( 'classification_date' ) ;
#110 = MANIFOLD_SOLID_BREP ( 'Corps-Déplacer/Copier1[1]', #224 ) ;
#111 = EDGE_LOOP ( 'NONE', ( #17 ) ) ;
#112 = APPLICATION_CONTEXT ( 'configuration controlled 3d designs of mechanical parts and assemblies' ) ;
#113 = ORIENTED_EDGE ( 'NONE', *, *, #23, .F. ) ;
#114 = CARTESIAN_POINT ( 'NONE',  ( 3.673508773327039873E-14, 1.823999999999998733, 10.52134729307824301 ) ) ;
#115 = PLANE ( 'NONE',  #148 ) ;
#116 = CARTESIAN_POINT ( 'NONE',  ( 3.673508773327039873E-14, 5.995540736994285591E-15, 10.52134729307824301 ) ) ;
#117 = DIRECTION ( 'NONE',  ( -3.491481338843133355E-15, -5.698453410941598685E-16, -1.000000000000000000 ) ) ;
#118 = APPROVAL_PERSON_ORGANIZATION ( #10, #39, #199 ) ;
#119 = DIRECTION ( 'NONE',  ( 3.491481338843133355E-15, 5.698453410941598685E-16, 1.000000000000000000 ) ) ;
#120 = ADVANCED_BREP_SHAPE_REPRESENTATION ( '321268', ( #110, #30, #25 ), #75 ) ;
#121 = COORDINATED_UNIVERSAL_TIME_OFFSET ( 1, 0, .AHEAD. ) ;
#122 = CARTESIAN_POINT ( 'NONE',  ( -1.892735826383161356E-31, 1.679662432702592634, -5.421010862427522170E-17 ) ) ;
#123 = CALENDAR_DATE ( 2021, 26, 11 ) ;
#124 = PERSON_AND_ORGANIZATION ( #132, #153 ) ;
#125 = CC_DESIGN_PERSON_AND_ORGANIZATION_ASSIGNMENT ( #233, #82, ( #198 ) ) ;
#126 = ORIENTED_EDGE ( 'NONE', *, *, #106, .F. ) ;
#127 = CIRCLE ( 'NONE', #184, 1.199999999999997513 ) ;
#128 = APPROVAL_STATUS ( 'not_yet_approved' ) ;
#129 = EDGE_LOOP ( 'NONE', ( #162 ) ) ;
#130 = ORIENTED_EDGE ( 'NONE', *, *, #229, .T. ) ;
#131 = DIRECTION ( 'NONE',  ( 1.989604374456959453E-30, -1.000000000000000000, 5.698453410941598685E-16 ) ) ;
#132 = PERSON ( 'UNSPECIFIED', 'UNSPECIFIED', 'UNSPECIFIED', ('UNSPECIFIED'), ('UNSPECIFIED'), ('UNSPECIFIED') ) ;
#133 = AXIS2_PLACEMENT_3D ( 'NONE', #168, #117, #172 ) ;
#134 = CARTESIAN_POINT ( 'NONE',  ( 3.673508773327039242E-14, 1.823999999999998733, 10.52134729307824124 ) ) ;
#135 = FACE_OUTER_BOUND ( 'NONE', #111, .T. ) ;
#136 = FACE_OUTER_BOUND ( 'NONE', #50, .T. ) ;
#137 = DIRECTION ( 'NONE',  ( -3.491481338843133355E-15, 1.049697256412017316E-16, -1.000000000000000000 ) ) ;
#138 = DATE_AND_TIME ( #123, #83 ) ;
#139 = PERSON_AND_ORGANIZATION_ROLE ( 'design_owner' ) ;
#140 = DATE_AND_TIME ( #27, #100 ) ;
#141 = EDGE_CURVE ( 'NONE', #182, #182, #99, .T. ) ;
#142 = EDGE_LOOP ( 'NONE', ( #130 ) ) ;
#143 = DIRECTION ( 'NONE',  ( 0.0000000000000000000, 1.000000000000000000, 0.0000000000000000000 ) ) ;
#144 = ADVANCED_FACE ( 'NONE', ( #190 ), #230, .T. ) ;
#145 = VERTEX_POINT ( 'NONE', #52 ) ;
#146 = FACE_BOUND ( 'NONE', #142, .T. ) ;
#147 = AXIS2_PLACEMENT_3D ( 'NONE', #114, #55, #26 ) ;
#148 = AXIS2_PLACEMENT_3D ( 'NONE', #116, #149, #131 ) ;
#149 = DIRECTION ( 'NONE',  ( 3.491481338843133355E-15, 5.698453410941598685E-16, 1.000000000000000000 ) ) ;
#150 = DIRECTION ( 'NONE',  ( -2.006177025403372315E-30, 1.000000000000000000, -5.646886315028673529E-16 ) ) ;
#151 = DIRECTION ( 'NONE',  ( 0.0000000000000000000, 1.000000000000000000, 0.0000000000000000000 ) ) ;
#152 = DESIGN_CONTEXT ( 'detailed design', #194, 'design' ) ;
#153 = ORGANIZATION ( 'UNSPECIFIED', 'UNSPECIFIED', '' ) ;
#154 = CARTESIAN_POINT ( 'NONE',  ( 8.728703347107831416E-16, 1.823999999999998733, 0.2499999999999999445 ) ) ;
#155 = DIRECTION ( 'NONE',  ( 1.000000000000000000, 0.0000000000000000000, 0.0000000000000000000 ) ) ;
#156 = APPLICATION_PROTOCOL_DEFINITION ( 'international standard', 'config_control_design', 1994, #194 ) ;
#157 = AXIS2_PLACEMENT_3D ( 'NONE', #5, #212, #76 ) ;
#158 = APPROVAL_ROLE ( '' ) ;
#159 = PERSON_AND_ORGANIZATION ( #132, #153 ) ;
#160 = CIRCLE ( 'NONE', #105, 1.823999999999999844 ) ;
#161 = EDGE_LOOP ( 'NONE', ( #90 ) ) ;
#162 = ORIENTED_EDGE ( 'NONE', *, *, #141, .F. ) ;
#163 = ADVANCED_FACE ( 'NONE', ( #136 ), #226, .T. ) ;
#164 = APPROVAL_ROLE ( '' ) ;
#165 = DIRECTION ( 'NONE',  ( 0.0000000000000000000, 1.000000000000000000, 0.0000000000000000000 ) ) ;
#166 = CONICAL_SURFACE ( 'NONE', #56, 1.823999999999999844, 0.5235987755982923764 ) ;
#167 = PRODUCT_DEFINITION_FORMATION_WITH_SPECIFIED_SOURCE ( 'ANY', '', #36, .NOT_KNOWN. ) ;
#168 = CARTESIAN_POINT ( 'NONE',  ( 3.152590141077780309E-30, 5.145348435022142906E-31, 9.029377032621801058E-16 ) ) ;
#169 = DIRECTION ( 'NONE',  ( -3.664998382197393967E-31, -1.000000000000000000, -1.049697256412017316E-16 ) ) ;
#170 = APPROVAL ( #180, 'UNSPECIFIED' ) ;
#171 = PRODUCT_DEFINITION_SHAPE ( 'NONE', 'NONE',  #198 ) ;
#172 = DIRECTION ( 'NONE',  ( -1.989604374456959453E-30, 1.000000000000000000, -5.698453410941598685E-16 ) ) ;
#173 = AXIS2_PLACEMENT_3D ( 'NONE', #175, #37, #54 ) ;
#174 = CARTESIAN_POINT ( 'NONE',  ( 0.0000000000000000000, 0.0000000000000000000, 0.0000000000000000000 ) ) ;
#175 = CARTESIAN_POINT ( 'NONE',  ( 2.433562493173664138E-13, -7.316389877191761450E-15, 69.70000000000001705 ) ) ;
#176 = DIRECTION ( 'NONE',  ( 0.0000000000000000000, 0.0000000000000000000, 1.000000000000000000 ) ) ;
#177 = AXIS2_PLACEMENT_3D ( 'NONE', #187, #243, #165 ) ;
#178 =( LENGTH_UNIT ( ) NAMED_UNIT ( * ) SI_UNIT ( .MILLI., .METRE. ) );
#179 = EDGE_CURVE ( 'NONE', #13, #13, #74, .T. ) ;
#180 = APPROVAL_STATUS ( 'not_yet_approved' ) ;
#181 = AXIS2_PLACEMENT_3D ( 'NONE', #213, #98, #169 ) ;
#182 = VERTEX_POINT ( 'NONE', #122 ) ;
#183 = CARTESIAN_POINT ( 'NONE',  ( -1.765568653177206093E-30, 1.679662432702592634, -5.056789602553652746E-16 ) ) ;
#184 = AXIS2_PLACEMENT_3D ( 'NONE', #57, #137, #91 ) ;
#185 = EDGE_LOOP ( 'NONE', ( #108 ) ) ;
#186 = SHAPE_DEFINITION_REPRESENTATION ( #171, #120 ) ;
#187 = CARTESIAN_POINT ( 'NONE',  ( 3.869445280877825814E-14, -1.163330317703974832E-15, 11.08253175473057794 ) ) ;
#188 = CC_DESIGN_PERSON_AND_ORGANIZATION_ASSIGNMENT ( #159, #239, ( #167 ) ) ;
#189 = EDGE_LOOP ( 'NONE', ( #89 ) ) ;
#190 = FACE_OUTER_BOUND ( 'NONE', #49, .T. ) ;
#191 = AXIS2_PLACEMENT_3D ( 'NONE', #223, #205, #34 ) ;
#192 = CARTESIAN_POINT ( 'NONE',  ( 3.152590141077780309E-30, 5.145348435022142906E-31, 9.029377032621801058E-16 ) ) ;
#193 = FACE_OUTER_BOUND ( 'NONE', #206, .T. ) ;
#194 = APPLICATION_CONTEXT ( 'configuration controlled 3d designs of mechanical parts and assemblies' ) ;
#195 = FACE_BOUND ( 'NONE', #129, .T. ) ;
#196 = APPROVAL_PERSON_ORGANIZATION ( #222, #3, #164 ) ;
#197 = DIRECTION ( 'NONE',  ( -3.491481338843133355E-15, -5.698453410941598685E-16, -1.000000000000000000 ) ) ;
#198 = PRODUCT_DEFINITION ( 'UNKNOWN', '', #167, #152 ) ;
#199 = APPROVAL_ROLE ( '' ) ;
#200 = COORDINATED_UNIVERSAL_TIME_OFFSET ( 1, 0, .AHEAD. ) ;
#201 =( NAMED_UNIT ( * ) PLANE_ANGLE_UNIT ( ) SI_UNIT ( $, .RADIAN. ) );
#202 = PERSON_AND_ORGANIZATION_ROLE ( 'creator' ) ;
#203 = COORDINATED_UNIVERSAL_TIME_OFFSET ( 1, 0, .AHEAD. ) ;
#204 = ORIENTED_EDGE ( 'NONE', *, *, #106, .T. ) ;
#205 = DIRECTION ( 'NONE',  ( -3.491481338843133355E-15, -5.698453410941598685E-16, -1.000000000000000000 ) ) ;
#206 = EDGE_LOOP ( 'NONE', ( #126 ) ) ;
#207 = CC_DESIGN_DATE_AND_TIME_ASSIGNMENT ( #140, #109, ( #53 ) ) ;
#208 = CIRCLE ( 'NONE', #236, 1.823999999999998511 ) ;
#209 = DIRECTION ( 'NONE',  ( -1.989604374456959453E-30, 1.000000000000000000, -5.698453410941597699E-16 ) ) ;
#210 = AXIS2_PLACEMENT_3D ( 'NONE', #192, #119, #21 ) ;
#211 = VERTEX_POINT ( 'NONE', #40 ) ;
#212 = DIRECTION ( 'NONE',  ( -3.491481338843133355E-15, 1.049697256412017316E-16, -1.000000000000000000 ) ) ;
#213 = CARTESIAN_POINT ( 'NONE',  ( 2.444036937190193601E-13, -7.347880794884121511E-15, 70.00000000000000000 ) ) ;
#214 = PERSON_AND_ORGANIZATION ( #132, #153 ) ;
#215 = CARTESIAN_POINT ( 'NONE',  ( 2.433562493173664138E-13, 1.499999999999990230, 69.70000000000001705 ) ) ;
#216 = ADVANCED_FACE ( 'NONE', ( #79, #8 ), #166, .T. ) ;
#217 = COORDINATED_UNIVERSAL_TIME_OFFSET ( 1, 0, .AHEAD. ) ;
#218 = APPROVAL_PERSON_ORGANIZATION ( #81, #170, #158 ) ;
#219 = CALENDAR_DATE ( 2021, 26, 11 ) ;
#220 = DATE_AND_TIME ( #219, #62 ) ;
#221 = LOCAL_TIME ( 14, 1, 59.00000000000000000, #203 ) ;
#222 = PERSON_AND_ORGANIZATION ( #132, #153 ) ;
#223 = CARTESIAN_POINT ( 'NONE',  ( 3.673508773327039873E-14, 5.995540736994286380E-15, 10.52134729307824301 ) ) ;
#224 = CLOSED_SHELL ( 'NONE', ( #163, #102, #240, #216, #144 ) ) ;
#225 = EDGE_LOOP ( 'NONE', ( #204 ) ) ;
#226 = PLANE ( 'NONE',  #181 ) ;
#227 = VERTEX_POINT ( 'NONE', #134 ) ;
#228 = VERTEX_POINT ( 'NONE', #154 ) ;
#229 = EDGE_CURVE ( 'NONE', #101, #101, #127, .T. ) ;
#230 = PLANE ( 'NONE',  #147 ) ;
#231 = FACE_OUTER_BOUND ( 'NONE', #225, .T. ) ;
#232 = CC_DESIGN_APPROVAL ( #3, ( #53 ) ) ;
#233 = PERSON_AND_ORGANIZATION ( #132, #153 ) ;
#234 = ADVANCED_FACE ( 'NONE', ( #22 ), #115, .T. ) ;
#235 = APPROVAL_STATUS ( 'not_yet_approved' ) ;
#236 = AXIS2_PLACEMENT_3D ( 'NONE', #93, #77, #150 ) ;
#237 = CC_DESIGN_APPROVAL ( #170, ( #198 ) ) ;
#238 = APPROVAL_DATE_TIME ( #104, #170 ) ;
#239 = PERSON_AND_ORGANIZATION_ROLE ( 'design_supplier' ) ;
#240 = ADVANCED_FACE ( 'NONE', ( #2, #135 ), #72, .T. ) ;
#241 = CALENDAR_DATE ( 2021, 26, 11 ) ;
#242 = EDGE_LOOP ( 'NONE', ( #113 ) ) ;
#243 = DIRECTION ( 'NONE',  ( -3.491481338843133355E-15, 1.049697256412017316E-16, -1.000000000000000000 ) ) ;
ENDSEC;
END-ISO-10303-21;
