ISO-10303-21;
HEADER;
FILE_DESCRIPTION (( 'STEP AP203' ),
    '1' );
FILE_NAME ('321267.step',
    '2021-11-26T13:01:59',
    ( '' ),
    ( '' ),
    'SwSTEP 2.0',
    'SolidWorks 2019',
    '' );
FILE_SCHEMA (( 'CONFIG_CONTROL_DESIGN' ));
ENDSEC;

DATA;
#1 = ORGANIZATION ( 'UNSPECIFIED', 'UNSPECIFIED', '' ) ;
#2 = CARTESIAN_POINT ( 'NONE',  ( -1.892735826383161356E-31, 1.674662432702592518, -5.421010862427522170E-17 ) ) ;
#3 = EDGE_CURVE ( 'NONE', #73, #73, #41, .T. ) ;
#4 = EDGE_LOOP ( 'NONE', ( #228 ) ) ;
#5 = EDGE_LOOP ( 'NONE', ( #243 ) ) ;
#6 = DATE_AND_TIME ( #80, #111 ) ;
#7 = ADVANCED_FACE ( 'NONE', ( #235 ), #184, .T. ) ;
#8 = PERSON_AND_ORGANIZATION_ROLE ( 'creator' ) ;
#9 = FACE_OUTER_BOUND ( 'NONE', #132, .T. ) ;
#10 = DIRECTION ( 'NONE',  ( -3.491481338843133355E-15, 1.049697256412017316E-16, -1.000000000000000000 ) ) ;
#11 = DIRECTION ( 'NONE',  ( -3.491481338843133355E-15, -5.691752412996407293E-16, -1.000000000000000000 ) ) ;
#12 = FACE_BOUND ( 'NONE', #193, .T. ) ;
#13 = AXIS2_PLACEMENT_3D ( 'NONE', #195, #10, #29 ) ;
#14 = DIRECTION ( 'NONE',  ( -3.491481338843133355E-15, -5.691752412996407293E-16, -1.000000000000000000 ) ) ;
#15 = PERSON_AND_ORGANIZATION_ROLE ( 'creator' ) ;
#16 =( LENGTH_UNIT ( ) NAMED_UNIT ( * ) SI_UNIT ( .MILLI., .METRE. ) );
#17 = EDGE_LOOP ( 'NONE', ( #39 ) ) ;
#18 = EDGE_CURVE ( 'NONE', #110, #110, #89, .T. ) ;
#19 = COORDINATED_UNIVERSAL_TIME_OFFSET ( 1, 0, .AHEAD. ) ;
#20 = EDGE_LOOP ( 'NONE', ( #147 ) ) ;
#21 = EDGE_CURVE ( 'NONE', #91, #91, #61, .T. ) ;
#22 = DATE_AND_TIME ( #38, #60 ) ;
#23 = MANIFOLD_SOLID_BREP ( 'Corps-Déplacer/Copier1[2]', #54 ) ;
#24 = PERSON_AND_ORGANIZATION_ROLE ( 'design_supplier' ) ;
#25 = ORIENTED_EDGE ( 'NONE', *, *, #130, .T. ) ;
#26 = DIRECTION ( 'NONE',  ( 1.987264733529232658E-30, -1.000000000000000000, 5.691752412996407293E-16 ) ) ;
#27 = CARTESIAN_POINT ( 'NONE',  ( 3.138724010437818785E-30, 5.116693525292776159E-31, 8.989662856046661932E-16 ) ) ;
#28 = CARTESIAN_POINT ( 'NONE',  ( 0.0000000000000000000, 0.0000000000000000000, 0.0000000000000000000 ) ) ;
#29 = DIRECTION ( 'NONE',  ( 0.0000000000000000000, 1.000000000000000000, 0.0000000000000000000 ) ) ;
#30 = CONICAL_SURFACE ( 'NONE', #35, 1.674662432702592518, 0.5235987755982971503 ) ;
#31 = CC_DESIGN_PERSON_AND_ORGANIZATION_ASSIGNMENT ( #185, #15, ( #63 ) ) ;
#32 = COORDINATED_UNIVERSAL_TIME_OFFSET ( 1, 0, .AHEAD. ) ;
#33 = CARTESIAN_POINT ( 'NONE',  ( 2.444036937190193601E-13, 1.199999999999990186, 70.00000000000000000 ) ) ;
#34 = AXIS2_PLACEMENT_3D ( 'NONE', #200, #157, #160 ) ;
#35 = AXIS2_PLACEMENT_3D ( 'NONE', #27, #122, #26 ) ;
#36 = PERSON_AND_ORGANIZATION ( #198, #1 ) ;
#37 = CONICAL_SURFACE ( 'NONE', #165, 1.499999999999997558, 0.7853981633974573828 ) ;
#38 = CALENDAR_DATE ( 2021, 26, 11 ) ;
#39 = ORIENTED_EDGE ( 'NONE', *, *, #3, .F. ) ;
#40 = ADVANCED_FACE ( 'NONE', ( #12, #216 ), #93, .T. ) ;
#41 = CIRCLE ( 'NONE', #109, 1.199999999999997513 ) ;
#42 = FACE_BOUND ( 'NONE', #5, .T. ) ;
#43 = AXIS2_PLACEMENT_3D ( 'NONE', #101, #199, #69 ) ;
#44 = CARTESIAN_POINT ( 'NONE',  ( 3.676532484863318008E-14, 5.993419586516837080E-15, 10.53000754711608700 ) ) ;
#45 = EDGE_CURVE ( 'NONE', #227, #227, #178, .T. ) ;
#46 = CARTESIAN_POINT ( 'NONE',  ( 3.676532484863316746E-14, 1.818999999999998618, 10.53000754711608344 ) ) ;
#47 = CARTESIAN_POINT ( 'NONE',  ( 2.444036937190193601E-13, -7.347880794884121511E-15, 70.00000000000000000 ) ) ;
#48 = CARTESIAN_POINT ( 'NONE',  ( -1.758635587857225506E-30, 1.674662432702592518, -5.036932514266083183E-16 ) ) ;
#49 = ADVANCED_FACE ( 'NONE', ( #219 ), #237, .T. ) ;
#50 = PERSON_AND_ORGANIZATION ( #198, #1 ) ;
#51 = VERTEX_POINT ( 'NONE', #149 ) ;
#52 = DIRECTION ( 'NONE',  ( 0.0000000000000000000, 0.0000000000000000000, 1.000000000000000000 ) ) ;
#53 = ADVANCED_BREP_SHAPE_REPRESENTATION ( '321267', ( #103, #23, #211 ), #76 ) ;
#54 = CLOSED_SHELL ( 'NONE', ( #49, #202, #153, #57 ) ) ;
#55 = CC_DESIGN_APPROVAL ( #158, ( #63 ) ) ;
#56 = DIRECTION ( 'NONE',  ( 1.000000000000000000, 0.0000000000000000000, 0.0000000000000000000 ) ) ;
#57 = ADVANCED_FACE ( 'NONE', ( #9 ), #179, .T. ) ;
#58 = DATE_TIME_ROLE ( 'classification_date' ) ;
#59 = EDGE_LOOP ( 'NONE', ( #117 ) ) ;
#60 = LOCAL_TIME ( 14, 1, 59.00000000000000000, #32 ) ;
#61 = CIRCLE ( 'NONE', #123, 1.674662432702592518 ) ;
#62 = SECURITY_CLASSIFICATION ( '', '', #231 ) ;
#63 = PRODUCT_DEFINITION ( 'UNKNOWN', '', #176, #156 ) ;
#64 = DIRECTION ( 'NONE',  ( -3.491481338843133355E-15, -5.691752412996407293E-16, -1.000000000000000000 ) ) ;
#65 = DIRECTION ( 'NONE',  ( -3.491481338843133355E-15, 1.049697256412017316E-16, -1.000000000000000000 ) ) ;
#66 = EDGE_CURVE ( 'NONE', #144, #144, #187, .T. ) ;
#67 = APPROVAL_PERSON_ORGANIZATION ( #90, #158, #133 ) ;
#68 = DIRECTION ( 'NONE',  ( 0.0000000000000000000, 1.000000000000000000, 0.0000000000000000000 ) ) ;
#69 = DIRECTION ( 'NONE',  ( -3.664998382197393967E-31, -1.000000000000000000, -1.049697256412017316E-16 ) ) ;
#70 = DIRECTION ( 'NONE',  ( -1.987264733529233008E-30, 1.000000000000000000, -5.691752412996407293E-16 ) ) ;
#71 = AXIS2_PLACEMENT_3D ( 'NONE', #143, #177, #87 ) ;
#72 = DATE_TIME_ROLE ( 'creation_date' ) ;
#73 = VERTEX_POINT ( 'NONE', #33 ) ;
#74 = EDGE_LOOP ( 'NONE', ( #172 ) ) ;
#75 = APPROVAL_STATUS ( 'not_yet_approved' ) ;
#76 =( GEOMETRIC_REPRESENTATION_CONTEXT ( 3 ) GLOBAL_UNCERTAINTY_ASSIGNED_CONTEXT ( ( #120 ) ) GLOBAL_UNIT_ASSIGNED_CONTEXT ( ( #16, #225, #223 ) ) REPRESENTATION_CONTEXT ( 'NONE', 'WORKASPACE' ) );
#77 = COORDINATED_UNIVERSAL_TIME_OFFSET ( 1, 0, .AHEAD. ) ;
#78 = EDGE_LOOP ( 'NONE', ( #25 ) ) ;
#79 = ORIENTED_EDGE ( 'NONE', *, *, #112, .F. ) ;
#80 = CALENDAR_DATE ( 2021, 26, 11 ) ;
#81 = ADVANCED_FACE ( 'NONE', ( #139, #86 ), #37, .T. ) ;
#82 = AXIS2_PLACEMENT_3D ( 'NONE', #28, #142, #102 ) ;
#83 = DIRECTION ( 'NONE',  ( 0.0000000000000000000, 1.000000000000000000, 0.0000000000000000000 ) ) ;
#84 = CARTESIAN_POINT ( 'NONE',  ( 3.676532484863317377E-14, -1.105332003220559150E-15, 10.53000754711608522 ) ) ;
#85 = FACE_OUTER_BOUND ( 'NONE', #74, .T. ) ;
#86 = FACE_OUTER_BOUND ( 'NONE', #97, .T. ) ;
#87 = DIRECTION ( 'NONE',  ( 1.987264733529233008E-30, -1.000000000000000000, 5.691752412996407293E-16 ) ) ;
#88 = COORDINATED_UNIVERSAL_TIME_OFFSET ( 1, 0, .AHEAD. ) ;
#89 = CIRCLE ( 'NONE', #13, 1.499999999999992673 ) ;
#90 = PERSON_AND_ORGANIZATION ( #198, #1 ) ;
#91 = VERTEX_POINT ( 'NONE', #2 ) ;
#92 = PERSON_AND_ORGANIZATION_ROLE ( 'design_owner' ) ;
#93 = CONICAL_SURFACE ( 'NONE', #221, 1.818999999999999728, 0.5235987755982925984 ) ;
#94 = EDGE_LOOP ( 'NONE', ( #96 ) ) ;
#95 = APPROVAL_STATUS ( 'not_yet_approved' ) ;
#96 = ORIENTED_EDGE ( 'NONE', *, *, #45, .T. ) ;
#97 = EDGE_LOOP ( 'NONE', ( #98 ) ) ;
#98 = ORIENTED_EDGE ( 'NONE', *, *, #130, .F. ) ;
#99 = APPROVAL_PERSON_ORGANIZATION ( #213, #215, #233 ) ;
#100 = PLANE ( 'NONE',  #43 ) ;
#101 = CARTESIAN_POINT ( 'NONE',  ( 2.444036937190193601E-13, -7.347880794884121511E-15, 70.00000000000000000 ) ) ;
#102 = DIRECTION ( 'NONE',  ( -1.987264733529233008E-30, 1.000000000000000000, -5.691752412996407293E-16 ) ) ;
#103 = MANIFOLD_SOLID_BREP ( 'Corps-Déplacer/Copier1[1]', #170 ) ;
#104 = LOCAL_TIME ( 14, 1, 59.00000000000000000, #77 ) ;
#105 = DIRECTION ( 'NONE',  ( -3.491481338843133355E-15, -5.691752412996407293E-16, -1.000000000000000000 ) ) ;
#106 = CC_DESIGN_PERSON_AND_ORGANIZATION_ASSIGNMENT ( #212, #24, ( #176 ) ) ;
#107 = APPROVAL_DATE_TIME ( #206, #158 ) ;
#108 = CARTESIAN_POINT ( 'NONE',  ( 8.728703347107831416E-16, 1.818999999999998618, 0.2499999999999999445 ) ) ;
#109 = AXIS2_PLACEMENT_3D ( 'NONE', #47, #127, #68 ) ;
#110 = VERTEX_POINT ( 'NONE', #168 ) ;
#111 = LOCAL_TIME ( 14, 1, 59.00000000000000000, #174 ) ;
#112 = EDGE_CURVE ( 'NONE', #224, #224, #175, .T. ) ;
#113 = APPLICATION_PROTOCOL_DEFINITION ( 'international standard', 'config_control_design', 1994, #207 ) ;
#114 = ORIENTED_EDGE ( 'NONE', *, *, #21, .T. ) ;
#115 = CARTESIAN_POINT ( 'NONE',  ( 0.0000000000000000000, 0.0000000000000000000, 0.0000000000000000000 ) ) ;
#116 = APPROVAL_PERSON_ORGANIZATION ( #50, #164, #203 ) ;
#117 = ORIENTED_EDGE ( 'NONE', *, *, #3, .T. ) ;
#118 = DATE_AND_TIME ( #138, #121 ) ;
#119 = AXIS2_PLACEMENT_3D ( 'NONE', #46, #65, #201 ) ;
#120 = UNCERTAINTY_MEASURE_WITH_UNIT (LENGTH_MEASURE( 1.000000000000000082E-05 ), #16, 'distance_accuracy_value', 'NONE');
#121 = LOCAL_TIME ( 14, 1, 59.00000000000000000, #19 ) ;
#122 = DIRECTION ( 'NONE',  ( 3.491481338843133355E-15, 5.691752412996407293E-16, 1.000000000000000000 ) ) ;
#123 = AXIS2_PLACEMENT_3D ( 'NONE', #161, #105, #70 ) ;
#124 = DIRECTION ( 'NONE',  ( -1.987264733529233008E-30, 1.000000000000000000, -5.691752412996407293E-16 ) ) ;
#125 = CARTESIAN_POINT ( 'NONE',  ( 3.676532484863317377E-14, -1.105332003220559150E-15, 10.53000754711608522 ) ) ;
#126 = DIRECTION ( 'NONE',  ( 0.0000000000000000000, 1.000000000000000000, 0.0000000000000000000 ) ) ;
#127 = DIRECTION ( 'NONE',  ( -3.491481338843133355E-15, 1.049697256412017316E-16, -1.000000000000000000 ) ) ;
#128 = APPLICATION_CONTEXT ( 'configuration controlled 3d designs of mechanical parts and assemblies' ) ;
#129 = APPROVAL_STATUS ( 'not_yet_approved' ) ;
#130 = EDGE_CURVE ( 'NONE', #51, #51, #230, .T. ) ;
#131 = PRODUCT ( '321267', '321267', '', ( #169 ) ) ;
#132 = EDGE_LOOP ( 'NONE', ( #114 ) ) ;
#133 = APPROVAL_ROLE ( '' ) ;
#134 = CALENDAR_DATE ( 2021, 26, 11 ) ;
#135 = CC_DESIGN_DATE_AND_TIME_ASSIGNMENT ( #240, #72, ( #63 ) ) ;
#136 = ORIENTED_EDGE ( 'NONE', *, *, #66, .T. ) ;
#137 = APPROVAL_DATE_TIME ( #22, #164 ) ;
#138 = CALENDAR_DATE ( 2021, 26, 11 ) ;
#139 = FACE_BOUND ( 'NONE', #59, .T. ) ;
#140 = DIRECTION ( 'NONE',  ( -3.491481338843133355E-15, 1.049697256412017316E-16, -1.000000000000000000 ) ) ;
#141 = DIRECTION ( 'NONE',  ( -3.491481338843133355E-15, 1.049697256412017316E-16, -1.000000000000000000 ) ) ;
#142 = DIRECTION ( 'NONE',  ( -3.491481338843133355E-15, -5.691752412996407293E-16, -1.000000000000000000 ) ) ;
#143 = CARTESIAN_POINT ( 'NONE',  ( 3.676532484863316746E-14, 5.993419586516835503E-15, 10.53000754711608344 ) ) ;
#144 = VERTEX_POINT ( 'NONE', #108 ) ;
#145 = CC_DESIGN_PERSON_AND_ORGANIZATION_ASSIGNMENT ( #36, #92, ( #131 ) ) ;
#146 = CYLINDRICAL_SURFACE ( 'NONE', #166, 1.499999999999995337 ) ;
#147 = ORIENTED_EDGE ( 'NONE', *, *, #18, .F. ) ;
#148 = AXIS2_PLACEMENT_3D ( 'NONE', #236, #14, #197 ) ;
#149 = CARTESIAN_POINT ( 'NONE',  ( 2.433562493173664138E-13, 1.499999999999990230, 69.70000000000001705 ) ) ;
#150 = DIRECTION ( 'NONE',  ( 3.664998382197393967E-31, 1.000000000000000000, 1.049697256412017316E-16 ) ) ;
#151 = CC_DESIGN_PERSON_AND_ORGANIZATION_ASSIGNMENT ( #190, #155, ( #62 ) ) ;
#152 = PRODUCT_DEFINITION_SHAPE ( 'NONE', 'NONE',  #63 ) ;
#153 = ADVANCED_FACE ( 'NONE', ( #214, #42 ), #30, .T. ) ;
#154 = SHAPE_DEFINITION_REPRESENTATION ( #152, #53 ) ;
#155 = PERSON_AND_ORGANIZATION_ROLE ( 'classification_officer' ) ;
#156 = DESIGN_CONTEXT ( 'detailed design', #207, 'design' ) ;
#157 = DIRECTION ( 'NONE',  ( -3.491481338843133355E-15, 1.049697256412017316E-16, -1.000000000000000000 ) ) ;
#158 = APPROVAL ( #75, 'UNSPECIFIED' ) ;
#159 = CARTESIAN_POINT ( 'NONE',  ( 2.433562493173664138E-13, -7.316389877191761450E-15, 69.70000000000001705 ) ) ;
#160 = DIRECTION ( 'NONE',  ( 0.0000000000000000000, 1.000000000000000000, 0.0000000000000000000 ) ) ;
#161 = CARTESIAN_POINT ( 'NONE',  ( 3.138724010437818785E-30, 5.116693525292776159E-31, 8.989662856046661932E-16 ) ) ;
#162 = DIRECTION ( 'NONE',  ( -3.491481338843133355E-15, 1.049697256412017316E-16, -1.000000000000000000 ) ) ;
#163 = CALENDAR_DATE ( 2021, 26, 11 ) ;
#164 = APPROVAL ( #129, 'UNSPECIFIED' ) ;
#165 = AXIS2_PLACEMENT_3D ( 'NONE', #159, #162, #83 ) ;
#166 = AXIS2_PLACEMENT_3D ( 'NONE', #171, #204, #150 ) ;
#167 = CARTESIAN_POINT ( 'NONE',  ( 3.676532484863317377E-14, 1.818999999999998618, 10.53000754711608522 ) ) ;
#168 = CARTESIAN_POINT ( 'NONE',  ( 3.869445280877825814E-14, 1.499999999999991562, 11.08253175473057794 ) ) ;
#169 = MECHANICAL_CONTEXT ( 'NONE', #128, 'mechanical' ) ;
#170 = CLOSED_SHELL ( 'NONE', ( #194, #81, #209, #40, #7 ) ) ;
#171 = CARTESIAN_POINT ( 'NONE',  ( 0.0000000000000000000, 0.0000000000000000000, 0.0000000000000000000 ) ) ;
#172 = ORIENTED_EDGE ( 'NONE', *, *, #66, .F. ) ;
#173 = PRODUCT_RELATED_PRODUCT_CATEGORY ( 'detail', '', ( #131 ) ) ;
#174 = COORDINATED_UNIVERSAL_TIME_OFFSET ( 1, 0, .AHEAD. ) ;
#175 = CIRCLE ( 'NONE', #210, 1.818999999999992401 ) ;
#176 = PRODUCT_DEFINITION_FORMATION_WITH_SPECIFIED_SOURCE ( 'ANY', '', #131, .NOT_KNOWN. ) ;
#177 = DIRECTION ( 'NONE',  ( 3.491481338843133355E-15, 5.691752412996407293E-16, 1.000000000000000000 ) ) ;
#178 = CIRCLE ( 'NONE', #182, 1.818999999999999728 ) ;
#179 = PLANE ( 'NONE',  #234 ) ;
#180 = FACE_OUTER_BOUND ( 'NONE', #191, .T. ) ;
#181 = FACE_OUTER_BOUND ( 'NONE', #78, .T. ) ;
#182 = AXIS2_PLACEMENT_3D ( 'NONE', #125, #141, #126 ) ;
#183 = CC_DESIGN_APPROVAL ( #215, ( #62 ) ) ;
#184 = PLANE ( 'NONE',  #119 ) ;
#185 = PERSON_AND_ORGANIZATION ( #198, #1 ) ;
#186 = APPLICATION_PROTOCOL_DEFINITION ( 'international standard', 'config_control_design', 1994, #128 ) ;
#187 = CIRCLE ( 'NONE', #148, 1.818999999999998396 ) ;
#188 = EDGE_LOOP ( 'NONE', ( #136 ) ) ;
#189 = ORIENTED_EDGE ( 'NONE', *, *, #18, .T. ) ;
#190 = PERSON_AND_ORGANIZATION ( #198, #1 ) ;
#191 = EDGE_LOOP ( 'NONE', ( #208 ) ) ;
#192 = PERSON_AND_ORGANIZATION ( #198, #1 ) ;
#193 = EDGE_LOOP ( 'NONE', ( #189 ) ) ;
#194 = ADVANCED_FACE ( 'NONE', ( #238 ), #100, .T. ) ;
#195 = CARTESIAN_POINT ( 'NONE',  ( 3.869445280877825814E-14, -1.163330317703974832E-15, 11.08253175473057794 ) ) ;
#196 = CC_DESIGN_SECURITY_CLASSIFICATION ( #62, ( #176 ) ) ;
#197 = DIRECTION ( 'NONE',  ( -2.011691530695849944E-30, 1.000000000000000000, -5.662408267516382827E-16 ) ) ;
#198 = PERSON ( 'UNSPECIFIED', 'UNSPECIFIED', 'UNSPECIFIED', ('UNSPECIFIED'), ('UNSPECIFIED'), ('UNSPECIFIED') ) ;
#199 = DIRECTION ( 'NONE',  ( 3.491481338843133355E-15, -1.049697256412017316E-16, 1.000000000000000000 ) ) ;
#200 = CARTESIAN_POINT ( 'NONE',  ( 2.433562493173664138E-13, -7.316389877191761450E-15, 69.70000000000001705 ) ) ;
#201 = DIRECTION ( 'NONE',  ( 3.664998382197393967E-31, 1.000000000000000000, 1.049697256412017316E-16 ) ) ;
#202 = ADVANCED_FACE ( 'NONE', ( #180, #85 ), #217, .T. ) ;
#203 = APPROVAL_ROLE ( '' ) ;
#204 = DIRECTION ( 'NONE',  ( -3.491481338843133355E-15, 1.049697256412017316E-16, -1.000000000000000000 ) ) ;
#205 = CARTESIAN_POINT ( 'NONE',  ( 3.676532484863317377E-14, 1.818999999999998618, 10.53000754711608522 ) ) ;
#206 = DATE_AND_TIME ( #134, #104 ) ;
#207 = APPLICATION_CONTEXT ( 'configuration controlled 3d designs of mechanical parts and assemblies' ) ;
#208 = ORIENTED_EDGE ( 'NONE', *, *, #112, .T. ) ;
#209 = ADVANCED_FACE ( 'NONE', ( #181, #242 ), #146, .T. ) ;
#210 = AXIS2_PLACEMENT_3D ( 'NONE', #44, #64, #218 ) ;
#211 = AXIS2_PLACEMENT_3D ( 'NONE', #115, #52, #56 ) ;
#212 = PERSON_AND_ORGANIZATION ( #198, #1 ) ;
#213 = PERSON_AND_ORGANIZATION ( #198, #1 ) ;
#214 = FACE_OUTER_BOUND ( 'NONE', #188, .T. ) ;
#215 = APPROVAL ( #95, 'UNSPECIFIED' ) ;
#216 = FACE_OUTER_BOUND ( 'NONE', #4, .T. ) ;
#217 = CYLINDRICAL_SURFACE ( 'NONE', #82, 1.818999999999995509 ) ;
#218 = DIRECTION ( 'NONE',  ( -3.388112051698284911E-30, 1.000000000000000000, -9.536687608448676627E-16 ) ) ;
#219 = FACE_OUTER_BOUND ( 'NONE', #229, .T. ) ;
#220 = CC_DESIGN_DATE_AND_TIME_ASSIGNMENT ( #6, #58, ( #62 ) ) ;
#221 = AXIS2_PLACEMENT_3D ( 'NONE', #84, #140, #239 ) ;
#222 = CC_DESIGN_APPROVAL ( #164, ( #176 ) ) ;
#223 =( NAMED_UNIT ( * ) SI_UNIT ( $, .STERADIAN. ) SOLID_ANGLE_UNIT ( ) );
#224 = VERTEX_POINT ( 'NONE', #167 ) ;
#225 =( NAMED_UNIT ( * ) PLANE_ANGLE_UNIT ( ) SI_UNIT ( $, .RADIAN. ) );
#226 = LOCAL_TIME ( 14, 1, 59.00000000000000000, #88 ) ;
#227 = VERTEX_POINT ( 'NONE', #205 ) ;
#228 = ORIENTED_EDGE ( 'NONE', *, *, #45, .F. ) ;
#229 = EDGE_LOOP ( 'NONE', ( #79 ) ) ;
#230 = CIRCLE ( 'NONE', #34, 1.499999999999997558 ) ;
#231 = SECURITY_CLASSIFICATION_LEVEL ( 'unclassified' ) ;
#232 = APPROVAL_DATE_TIME ( #118, #215 ) ;
#233 = APPROVAL_ROLE ( '' ) ;
#234 = AXIS2_PLACEMENT_3D ( 'NONE', #48, #11, #124 ) ;
#235 = FACE_OUTER_BOUND ( 'NONE', #94, .T. ) ;
#236 = CARTESIAN_POINT ( 'NONE',  ( 8.728703347107867901E-16, 1.422938103249107247E-16, 0.2500000000000009992 ) ) ;
#237 = PLANE ( 'NONE',  #71 ) ;
#238 = FACE_OUTER_BOUND ( 'NONE', #17, .T. ) ;
#239 = DIRECTION ( 'NONE',  ( 0.0000000000000000000, 1.000000000000000000, 0.0000000000000000000 ) ) ;
#240 = DATE_AND_TIME ( #163, #226 ) ;
#241 = CC_DESIGN_PERSON_AND_ORGANIZATION_ASSIGNMENT ( #192, #8, ( #176 ) ) ;
#242 = FACE_OUTER_BOUND ( 'NONE', #20, .T. ) ;
#243 = ORIENTED_EDGE ( 'NONE', *, *, #21, .F. ) ;
ENDSEC;
END-ISO-10303-21;
