ISO-10303-21;
HEADER;
FILE_DESCRIPTION (( 'STEP AP203' ),
    '1' );
FILE_NAME ('321266.step',
    '2021-11-26T13:01:58',
    ( '' ),
    ( '' ),
    'SwSTEP 2.0',
    'SolidWorks 2019',
    '' );
FILE_SCHEMA (( 'CONFIG_CONTROL_DESIGN' ));
ENDSEC;

DATA;
#1 = APPROVAL_ROLE ( '' ) ;
#2 = VERTEX_POINT ( 'NONE', #20 ) ;
#3 = PRODUCT_RELATED_PRODUCT_CATEGORY ( 'detail', '', ( #15 ) ) ;
#4 = DIRECTION ( 'NONE',  ( -3.491481338843133355E-15, 1.049697256412017316E-16, -1.000000000000000000 ) ) ;
#5 = CALENDAR_DATE ( 2021, 26, 11 ) ;
#6 = CC_DESIGN_SECURITY_CLASSIFICATION ( #150, ( #159 ) ) ;
#7 = APPROVAL_ROLE ( '' ) ;
#8 = CC_DESIGN_PERSON_AND_ORGANIZATION_ASSIGNMENT ( #105, #85, ( #159 ) ) ;
#9 = SHAPE_DEFINITION_REPRESENTATION ( #19, #193 ) ;
#10 = AXIS2_PLACEMENT_3D ( 'NONE', #181, #104, #153 ) ;
#11 = APPROVAL_STATUS ( 'not_yet_approved' ) ;
#12 = ADVANCED_FACE ( 'NONE', ( #108, #92 ), #125, .T. ) ;
#13 = FACE_OUTER_BOUND ( 'NONE', #171, .T. ) ;
#14 = DIRECTION ( 'NONE',  ( -3.491481338843133355E-15, 1.049697256412017316E-16, -1.000000000000000000 ) ) ;
#15 = PRODUCT ( '321266', '321266', '', ( #133 ) ) ;
#16 = ORIENTED_EDGE ( 'NONE', *, *, #77, .F. ) ;
#17 = CIRCLE ( 'NONE', #68, 1.199999999999997513 ) ;
#18 = AXIS2_PLACEMENT_3D ( 'NONE', #25, #22, #145 ) ;
#19 = PRODUCT_DEFINITION_SHAPE ( 'NONE', 'NONE',  #216 ) ;
#20 = CARTESIAN_POINT ( 'NONE',  ( 3.679556196399594251E-14, 1.813999999999998725, 10.53866780115392920 ) ) ;
#21 = CIRCLE ( 'NONE', #191, 1.499999999999997558 ) ;
#22 = DIRECTION ( 'NONE',  ( 0.0000000000000000000, 0.0000000000000000000, 1.000000000000000000 ) ) ;
#23 = MANIFOLD_SOLID_BREP ( 'Corps-Déplacer/Copier1[1]', #190 ) ;
#24 = PERSON_AND_ORGANIZATION ( #226, #196 ) ;
#25 = CARTESIAN_POINT ( 'NONE',  ( 0.0000000000000000000, 0.0000000000000000000, 0.0000000000000000000 ) ) ;
#26 = EDGE_LOOP ( 'NONE', ( #16 ) ) ;
#27 = AXIS2_PLACEMENT_3D ( 'NONE', #194, #40, #89 ) ;
#28 = EDGE_LOOP ( 'NONE', ( #66 ) ) ;
#29 = APPROVAL_DATE_TIME ( #232, #207 ) ;
#30 = APPROVAL_STATUS ( 'not_yet_approved' ) ;
#31 = FACE_BOUND ( 'NONE', #209, .T. ) ;
#32 = AXIS2_PLACEMENT_3D ( 'NONE', #57, #109, #74 ) ;
#33 = CALENDAR_DATE ( 2021, 26, 11 ) ;
#34 = AXIS2_PLACEMENT_3D ( 'NONE', #45, #76, #130 ) ;
#35 = EDGE_CURVE ( 'NONE', #131, #131, #157, .T. ) ;
#36 = CARTESIAN_POINT ( 'NONE',  ( -1.751717430873228745E-30, 1.669662432702592625, -5.017118125149832204E-16 ) ) ;
#37 = DIRECTION ( 'NONE',  ( 1.984928937847446737E-30, -1.000000000000000000, 5.685062428273303665E-16 ) ) ;
#38 = DIRECTION ( 'NONE',  ( 3.664998382197393967E-31, 1.000000000000000000, 1.049697256412017316E-16 ) ) ;
#39 = AXIS2_PLACEMENT_3D ( 'NONE', #156, #158, #197 ) ;
#40 = DIRECTION ( 'NONE',  ( -3.491481338843133355E-15, -5.685062428273303665E-16, -1.000000000000000000 ) ) ;
#41 = FACE_BOUND ( 'NONE', #28, .T. ) ;
#42 = DIRECTION ( 'NONE',  ( 3.491481338843133355E-15, -1.049697256412017316E-16, 1.000000000000000000 ) ) ;
#43 = CIRCLE ( 'NONE', #34, 1.813999999999999835 ) ;
#44 =( GEOMETRIC_REPRESENTATION_CONTEXT ( 3 ) GLOBAL_UNCERTAINTY_ASSIGNED_CONTEXT ( ( #135 ) ) GLOBAL_UNIT_ASSIGNED_CONTEXT ( ( #225, #113, #222 ) ) REPRESENTATION_CONTEXT ( 'NONE', 'WORKASPACE' ) );
#45 = CARTESIAN_POINT ( 'NONE',  ( 3.679556196399594251E-14, -1.106241067710894677E-15, 10.53866780115392920 ) ) ;
#46 = CC_DESIGN_DATE_AND_TIME_ASSIGNMENT ( #122, #152, ( #150 ) ) ;
#47 = ORIENTED_EDGE ( 'NONE', *, *, #35, .F. ) ;
#48 = APPROVAL_ROLE ( '' ) ;
#49 = SECURITY_CLASSIFICATION_LEVEL ( 'unclassified' ) ;
#50 = EDGE_LOOP ( 'NONE', ( #210 ) ) ;
#51 = CALENDAR_DATE ( 2021, 26, 11 ) ;
#52 = FACE_BOUND ( 'NONE', #67, .T. ) ;
#53 = DIRECTION ( 'NONE',  ( 0.0000000000000000000, 1.000000000000000000, 0.0000000000000000000 ) ) ;
#54 = DATE_TIME_ROLE ( 'creation_date' ) ;
#55 = DIRECTION ( 'NONE',  ( -3.491481338843133355E-15, -5.685062428273303665E-16, -1.000000000000000000 ) ) ;
#56 = CC_DESIGN_PERSON_AND_ORGANIZATION_ASSIGNMENT ( #143, #60, ( #216 ) ) ;
#57 = CARTESIAN_POINT ( 'NONE',  ( 3.124887696469825262E-30, 5.088150246754698418E-31, 8.950034077814159974E-16 ) ) ;
#58 = DIRECTION ( 'NONE',  ( -3.491481338843133355E-15, -5.685062428273303665E-16, -1.000000000000000000 ) ) ;
#59 = CC_DESIGN_APPROVAL ( #168, ( #159 ) ) ;
#60 = PERSON_AND_ORGANIZATION_ROLE ( 'creator' ) ;
#61 = PLANE ( 'NONE',  #144 ) ;
#62 = CARTESIAN_POINT ( 'NONE',  ( 8.728703347107831416E-16, 1.813999999999998725, 0.2499999999999999445 ) ) ;
#63 = DATE_AND_TIME ( #5, #84 ) ;
#64 = DESIGN_CONTEXT ( 'detailed design', #224, 'design' ) ;
#65 = ADVANCED_FACE ( 'NONE', ( #161 ), #138, .T. ) ;
#66 = ORIENTED_EDGE ( 'NONE', *, *, #77, .T. ) ;
#67 = EDGE_LOOP ( 'NONE', ( #235 ) ) ;
#68 = AXIS2_PLACEMENT_3D ( 'NONE', #69, #87, #73 ) ;
#69 = CARTESIAN_POINT ( 'NONE',  ( 2.444036937190193601E-13, -7.347880794884121511E-15, 70.00000000000000000 ) ) ;
#70 = ADVANCED_FACE ( 'NONE', ( #178, #177 ), #91, .T. ) ;
#71 = DIRECTION ( 'NONE',  ( -3.491481338843133355E-15, -5.685062428273303665E-16, -1.000000000000000000 ) ) ;
#72 = PLANE ( 'NONE',  #201 ) ;
#73 = DIRECTION ( 'NONE',  ( 0.0000000000000000000, 1.000000000000000000, 0.0000000000000000000 ) ) ;
#74 = DIRECTION ( 'NONE',  ( 1.984928937847447087E-30, -1.000000000000000000, 5.685062428273303665E-16 ) ) ;
#75 = APPROVAL_DATE_TIME ( #63, #238 ) ;
#76 = DIRECTION ( 'NONE',  ( -3.491481338843133355E-15, 1.049697256412017316E-16, -1.000000000000000000 ) ) ;
#77 = EDGE_CURVE ( 'NONE', #204, #204, #17, .T. ) ;
#78 = ADVANCED_FACE ( 'NONE', ( #242 ), #72, .T. ) ;
#79 = FACE_OUTER_BOUND ( 'NONE', #26, .T. ) ;
#80 = ADVANCED_FACE ( 'NONE', ( #213 ), #200, .T. ) ;
#81 = ORIENTED_EDGE ( 'NONE', *, *, #93, .F. ) ;
#82 = CONICAL_SURFACE ( 'NONE', #221, 1.499999999999997558, 0.7853981633974573828 ) ;
#83 = PERSON_AND_ORGANIZATION ( #226, #196 ) ;
#84 = LOCAL_TIME ( 14, 1, 58.00000000000000000, #166 ) ;
#85 = PERSON_AND_ORGANIZATION_ROLE ( 'creator' ) ;
#86 = CARTESIAN_POINT ( 'NONE',  ( 3.679556196399594251E-14, 5.991298436039383047E-15, 10.53866780115392920 ) ) ;
#87 = DIRECTION ( 'NONE',  ( -3.491481338843133355E-15, 1.049697256412017316E-16, -1.000000000000000000 ) ) ;
#88 = CC_DESIGN_PERSON_AND_ORGANIZATION_ASSIGNMENT ( #174, #173, ( #150 ) ) ;
#89 = DIRECTION ( 'NONE',  ( -1.984928937847446386E-30, 1.000000000000000000, -5.685062428273302679E-16 ) ) ;
#90 = AXIS2_PLACEMENT_3D ( 'NONE', #240, #160, #38 ) ;
#91 = CYLINDRICAL_SURFACE ( 'NONE', #39, 1.499999999999995337 ) ;
#92 = FACE_OUTER_BOUND ( 'NONE', #189, .T. ) ;
#93 = EDGE_CURVE ( 'NONE', #136, #136, #175, .T. ) ;
#94 = CONICAL_SURFACE ( 'NONE', #228, 1.813999999999999835, 0.5235987755982920433 ) ;
#95 = CARTESIAN_POINT ( 'NONE',  ( 2.444036937190193601E-13, 1.199999999999990186, 70.00000000000000000 ) ) ;
#96 = VERTEX_POINT ( 'NONE', #183 ) ;
#97 = DIRECTION ( 'NONE',  ( 0.0000000000000000000, 1.000000000000000000, 0.0000000000000000000 ) ) ;
#98 = AXIS2_PLACEMENT_3D ( 'NONE', #142, #71, #218 ) ;
#99 = LOCAL_TIME ( 14, 1, 58.00000000000000000, #236 ) ;
#100 = APPROVAL_STATUS ( 'not_yet_approved' ) ;
#101 = DATE_AND_TIME ( #51, #230 ) ;
#102 = ORIENTED_EDGE ( 'NONE', *, *, #35, .T. ) ;
#103 = COORDINATED_UNIVERSAL_TIME_OFFSET ( 1, 0, .AHEAD. ) ;
#104 = DIRECTION ( 'NONE',  ( -3.491481338843133355E-15, -5.685062428273303665E-16, -1.000000000000000000 ) ) ;
#105 = PERSON_AND_ORGANIZATION ( #226, #196 ) ;
#106 = ADVANCED_FACE ( 'NONE', ( #141, #31 ), #114, .T. ) ;
#107 = DIRECTION ( 'NONE',  ( 3.491481338843133355E-15, 5.685062428273303665E-16, 1.000000000000000000 ) ) ;
#108 = FACE_OUTER_BOUND ( 'NONE', #172, .T. ) ;
#109 = DIRECTION ( 'NONE',  ( 3.491481338843133355E-15, 5.685062428273303665E-16, 1.000000000000000000 ) ) ;
#110 = EDGE_LOOP ( 'NONE', ( #212 ) ) ;
#111 = CARTESIAN_POINT ( 'NONE',  ( 2.433562493173664138E-13, -7.316389877191761450E-15, 69.70000000000001705 ) ) ;
#112 = CC_DESIGN_PERSON_AND_ORGANIZATION_ASSIGNMENT ( #243, #162, ( #15 ) ) ;
#113 =( NAMED_UNIT ( * ) PLANE_ANGLE_UNIT ( ) SI_UNIT ( $, .RADIAN. ) );
#114 = CONICAL_SURFACE ( 'NONE', #32, 1.669662432702592625, 0.5235987755982971503 ) ;
#115 = APPROVAL_PERSON_ORGANIZATION ( #83, #207, #48 ) ;
#116 = ORIENTED_EDGE ( 'NONE', *, *, #167, .T. ) ;
#117 = EDGE_CURVE ( 'NONE', #185, #185, #134, .T. ) ;
#118 = VERTEX_POINT ( 'NONE', #164 ) ;
#119 = ORIENTED_EDGE ( 'NONE', *, *, #93, .T. ) ;
#120 = EDGE_LOOP ( 'NONE', ( #231 ) ) ;
#121 = EDGE_LOOP ( 'NONE', ( #241 ) ) ;
#122 = DATE_AND_TIME ( #149, #234 ) ;
#123 = DIRECTION ( 'NONE',  ( -1.984928937847446737E-30, 1.000000000000000000, -5.685062428273303665E-16 ) ) ;
#124 = CALENDAR_DATE ( 2021, 26, 11 ) ;
#125 = CYLINDRICAL_SURFACE ( 'NONE', #27, 1.813999999999995838 ) ;
#126 = AXIS2_PLACEMENT_3D ( 'NONE', #237, #55, #123 ) ;
#127 = PERSON_AND_ORGANIZATION ( #226, #196 ) ;
#128 = DIRECTION ( 'NONE',  ( 0.0000000000000000000, 1.000000000000000000, 0.0000000000000000000 ) ) ;
#129 = ADVANCED_FACE ( 'NONE', ( #52, #13 ), #94, .T. ) ;
#130 = DIRECTION ( 'NONE',  ( 0.0000000000000000000, 1.000000000000000000, 0.0000000000000000000 ) ) ;
#131 = VERTEX_POINT ( 'NONE', #184 ) ;
#132 = CC_DESIGN_PERSON_AND_ORGANIZATION_ASSIGNMENT ( #239, #198, ( #159 ) ) ;
#133 = MECHANICAL_CONTEXT ( 'NONE', #147, 'mechanical' ) ;
#134 = CIRCLE ( 'NONE', #163, 1.499999999999992673 ) ;
#135 = UNCERTAINTY_MEASURE_WITH_UNIT (LENGTH_MEASURE( 1.000000000000000082E-05 ), #225, 'distance_accuracy_value', 'NONE');
#136 = VERTEX_POINT ( 'NONE', #62 ) ;
#137 = COORDINATED_UNIVERSAL_TIME_OFFSET ( 1, 0, .AHEAD. ) ;
#138 = PLANE ( 'NONE',  #90 ) ;
#139 = APPROVAL_DATE_TIME ( #215, #168 ) ;
#140 = CARTESIAN_POINT ( 'NONE',  ( 2.433562493173664138E-13, -7.316389877191761450E-15, 69.70000000000001705 ) ) ;
#141 = FACE_OUTER_BOUND ( 'NONE', #151, .T. ) ;
#142 = CARTESIAN_POINT ( 'NONE',  ( 8.728703347107867901E-16, 1.421265607068331586E-16, 0.2500000000000009992 ) ) ;
#143 = PERSON_AND_ORGANIZATION ( #226, #196 ) ;
#144 = AXIS2_PLACEMENT_3D ( 'NONE', #220, #42, #203 ) ;
#145 = DIRECTION ( 'NONE',  ( 1.000000000000000000, 0.0000000000000000000, 0.0000000000000000000 ) ) ;
#146 = APPROVAL_PERSON_ORGANIZATION ( #24, #238, #1 ) ;
#147 = APPLICATION_CONTEXT ( 'configuration controlled 3d designs of mechanical parts and assemblies' ) ;
#148 = EDGE_LOOP ( 'NONE', ( #116 ) ) ;
#149 = CALENDAR_DATE ( 2021, 26, 11 ) ;
#150 = SECURITY_CLASSIFICATION ( '', '', #49 ) ;
#151 = EDGE_LOOP ( 'NONE', ( #119 ) ) ;
#152 = DATE_TIME_ROLE ( 'classification_date' ) ;
#153 = DIRECTION ( 'NONE',  ( -3.397450839051366993E-30, 1.000000000000000000, -9.562973957975822105E-16 ) ) ;
#154 = EDGE_CURVE ( 'NONE', #96, #96, #195, .T. ) ;
#155 = COORDINATED_UNIVERSAL_TIME_OFFSET ( 1, 0, .AHEAD. ) ;
#156 = CARTESIAN_POINT ( 'NONE',  ( 0.0000000000000000000, 0.0000000000000000000, 0.0000000000000000000 ) ) ;
#157 = CIRCLE ( 'NONE', #10, 1.813999999999992729 ) ;
#158 = DIRECTION ( 'NONE',  ( -3.491481338843133355E-15, 1.049697256412017316E-16, -1.000000000000000000 ) ) ;
#159 = PRODUCT_DEFINITION_FORMATION_WITH_SPECIFIED_SOURCE ( 'ANY', '', #15, .NOT_KNOWN. ) ;
#160 = DIRECTION ( 'NONE',  ( -3.491481338843133355E-15, 1.049697256412017316E-16, -1.000000000000000000 ) ) ;
#161 = FACE_OUTER_BOUND ( 'NONE', #121, .T. ) ;
#162 = PERSON_AND_ORGANIZATION_ROLE ( 'design_owner' ) ;
#163 = AXIS2_PLACEMENT_3D ( 'NONE', #176, #14, #219 ) ;
#164 = CARTESIAN_POINT ( 'NONE',  ( 2.433562493173664138E-13, 1.499999999999990230, 69.70000000000001705 ) ) ;
#165 = CARTESIAN_POINT ( 'NONE',  ( 3.869445280877825814E-14, 1.499999999999991562, 11.08253175473057794 ) ) ;
#166 = COORDINATED_UNIVERSAL_TIME_OFFSET ( 1, 0, .AHEAD. ) ;
#167 = EDGE_CURVE ( 'NONE', #118, #118, #21, .T. ) ;
#168 = APPROVAL ( #30, 'UNSPECIFIED' ) ;
#169 = APPROVAL_PERSON_ORGANIZATION ( #127, #168, #7 ) ;
#170 = LOCAL_TIME ( 14, 1, 58.00000000000000000, #103 ) ;
#171 = EDGE_LOOP ( 'NONE', ( #192 ) ) ;
#172 = EDGE_LOOP ( 'NONE', ( #102 ) ) ;
#173 = PERSON_AND_ORGANIZATION_ROLE ( 'classification_officer' ) ;
#174 = PERSON_AND_ORGANIZATION ( #226, #196 ) ;
#175 = CIRCLE ( 'NONE', #98, 1.813999999999998503 ) ;
#176 = CARTESIAN_POINT ( 'NONE',  ( 3.869445280877825814E-14, -1.163330317703974832E-15, 11.08253175473057794 ) ) ;
#177 = FACE_OUTER_BOUND ( 'NONE', #50, .T. ) ;
#178 = FACE_OUTER_BOUND ( 'NONE', #148, .T. ) ;
#179 = EDGE_CURVE ( 'NONE', #2, #2, #43, .T. ) ;
#180 = DIRECTION ( 'NONE',  ( -1.984928937847446737E-30, 1.000000000000000000, -5.685062428273303665E-16 ) ) ;
#181 = CARTESIAN_POINT ( 'NONE',  ( 3.679556196399594882E-14, 5.991298436039384625E-15, 10.53866780115393098 ) ) ;
#182 = MANIFOLD_SOLID_BREP ( 'Corps-Déplacer/Copier1[2]', #205 ) ;
#183 = CARTESIAN_POINT ( 'NONE',  ( -1.892735826383161356E-31, 1.669662432702592625, -5.421010862427522170E-17 ) ) ;
#184 = CARTESIAN_POINT ( 'NONE',  ( 3.679556196399594251E-14, 1.813999999999998725, 10.53866780115392920 ) ) ;
#185 = VERTEX_POINT ( 'NONE', #165 ) ;
#186 = AXIS2_PLACEMENT_3D ( 'NONE', #36, #58, #180 ) ;
#187 = CC_DESIGN_DATE_AND_TIME_ASSIGNMENT ( #101, #54, ( #216 ) ) ;
#188 = FACE_OUTER_BOUND ( 'NONE', #120, .T. ) ;
#189 = EDGE_LOOP ( 'NONE', ( #81 ) ) ;
#190 = CLOSED_SHELL ( 'NONE', ( #208, #229, #70, #129, #65 ) ) ;
#191 = AXIS2_PLACEMENT_3D ( 'NONE', #140, #214, #53 ) ;
#192 = ORIENTED_EDGE ( 'NONE', *, *, #179, .F. ) ;
#193 = ADVANCED_BREP_SHAPE_REPRESENTATION ( '321266', ( #23, #182, #18 ), #44 ) ;
#194 = CARTESIAN_POINT ( 'NONE',  ( 0.0000000000000000000, 0.0000000000000000000, 0.0000000000000000000 ) ) ;
#195 = CIRCLE ( 'NONE', #126, 1.669662432702592625 ) ;
#196 = ORGANIZATION ( 'UNSPECIFIED', 'UNSPECIFIED', '' ) ;
#197 = DIRECTION ( 'NONE',  ( 3.664998382197393967E-31, 1.000000000000000000, 1.049697256412017316E-16 ) ) ;
#198 = PERSON_AND_ORGANIZATION_ROLE ( 'design_supplier' ) ;
#199 = EDGE_LOOP ( 'NONE', ( #47 ) ) ;
#200 = PLANE ( 'NONE',  #186 ) ;
#201 = AXIS2_PLACEMENT_3D ( 'NONE', #86, #107, #37 ) ;
#202 = CARTESIAN_POINT ( 'NONE',  ( 3.679556196399594251E-14, -1.106241067710894677E-15, 10.53866780115392920 ) ) ;
#203 = DIRECTION ( 'NONE',  ( -3.664998382197393967E-31, -1.000000000000000000, -1.049697256412017316E-16 ) ) ;
#204 = VERTEX_POINT ( 'NONE', #95 ) ;
#205 = CLOSED_SHELL ( 'NONE', ( #78, #12, #106, #80 ) ) ;
#206 = CC_DESIGN_APPROVAL ( #238, ( #216 ) ) ;
#207 = APPROVAL ( #11, 'UNSPECIFIED' ) ;
#208 = ADVANCED_FACE ( 'NONE', ( #79 ), #61, .T. ) ;
#209 = EDGE_LOOP ( 'NONE', ( #233 ) ) ;
#210 = ORIENTED_EDGE ( 'NONE', *, *, #117, .F. ) ;
#211 = CC_DESIGN_APPROVAL ( #207, ( #150 ) ) ;
#212 = ORIENTED_EDGE ( 'NONE', *, *, #154, .T. ) ;
#213 = FACE_OUTER_BOUND ( 'NONE', #110, .T. ) ;
#214 = DIRECTION ( 'NONE',  ( -3.491481338843133355E-15, 1.049697256412017316E-16, -1.000000000000000000 ) ) ;
#215 = DATE_AND_TIME ( #33, #170 ) ;
#216 = PRODUCT_DEFINITION ( 'UNKNOWN', '', #159, #64 ) ;
#217 = DIRECTION ( 'NONE',  ( -3.491481338843133355E-15, 1.049697256412017316E-16, -1.000000000000000000 ) ) ;
#218 = DIRECTION ( 'NONE',  ( -2.017236435686742737E-30, 1.000000000000000000, -5.678015787548126317E-16 ) ) ;
#219 = DIRECTION ( 'NONE',  ( 0.0000000000000000000, 1.000000000000000000, 0.0000000000000000000 ) ) ;
#220 = CARTESIAN_POINT ( 'NONE',  ( 2.444036937190193601E-13, -7.347880794884121511E-15, 70.00000000000000000 ) ) ;
#221 = AXIS2_PLACEMENT_3D ( 'NONE', #111, #4, #97 ) ;
#222 =( NAMED_UNIT ( * ) SI_UNIT ( $, .STERADIAN. ) SOLID_ANGLE_UNIT ( ) );
#223 = APPLICATION_PROTOCOL_DEFINITION ( 'international standard', 'config_control_design', 1994, #147 ) ;
#224 = APPLICATION_CONTEXT ( 'configuration controlled 3d designs of mechanical parts and assemblies' ) ;
#225 =( LENGTH_UNIT ( ) NAMED_UNIT ( * ) SI_UNIT ( .MILLI., .METRE. ) );
#226 = PERSON ( 'UNSPECIFIED', 'UNSPECIFIED', 'UNSPECIFIED', ('UNSPECIFIED'), ('UNSPECIFIED'), ('UNSPECIFIED') ) ;
#227 = APPLICATION_PROTOCOL_DEFINITION ( 'international standard', 'config_control_design', 1994, #224 ) ;
#228 = AXIS2_PLACEMENT_3D ( 'NONE', #202, #217, #128 ) ;
#229 = ADVANCED_FACE ( 'NONE', ( #41, #188 ), #82, .T. ) ;
#230 = LOCAL_TIME ( 14, 1, 58.00000000000000000, #137 ) ;
#231 = ORIENTED_EDGE ( 'NONE', *, *, #167, .F. ) ;
#232 = DATE_AND_TIME ( #124, #99 ) ;
#233 = ORIENTED_EDGE ( 'NONE', *, *, #154, .F. ) ;
#234 = LOCAL_TIME ( 14, 1, 58.00000000000000000, #155 ) ;
#235 = ORIENTED_EDGE ( 'NONE', *, *, #117, .T. ) ;
#236 = COORDINATED_UNIVERSAL_TIME_OFFSET ( 1, 0, .AHEAD. ) ;
#237 = CARTESIAN_POINT ( 'NONE',  ( 3.124887696469825262E-30, 5.088150246754698418E-31, 8.950034077814159974E-16 ) ) ;
#238 = APPROVAL ( #100, 'UNSPECIFIED' ) ;
#239 = PERSON_AND_ORGANIZATION ( #226, #196 ) ;
#240 = CARTESIAN_POINT ( 'NONE',  ( 3.679556196399594251E-14, 1.813999999999998725, 10.53866780115392920 ) ) ;
#241 = ORIENTED_EDGE ( 'NONE', *, *, #179, .T. ) ;
#242 = FACE_OUTER_BOUND ( 'NONE', #199, .T. ) ;
#243 = PERSON_AND_ORGANIZATION ( #226, #196 ) ;
ENDSEC;
END-ISO-10303-21;
