ISO-10303-21;
HEADER;
FILE_DESCRIPTION (( 'STEP AP203' ),
    '1' );
FILE_NAME ('321265.step',
    '2021-11-26T13:01:58',
    ( '' ),
    ( '' ),
    'SwSTEP 2.0',
    'SolidWorks 2019',
    '' );
FILE_SCHEMA (( 'CONFIG_CONTROL_DESIGN' ));
ENDSEC;

DATA;
#1 = AXIS2_PLACEMENT_3D ( 'NONE', #156, #195, #174 ) ;
#2 = APPROVAL_DATE_TIME ( #226, #65 ) ;
#3 = ADVANCED_FACE ( 'NONE', ( #104 ), #87, .T. ) ;
#4 = PERSON_AND_ORGANIZATION ( #127, #231 ) ;
#5 = AXIS2_PLACEMENT_3D ( 'NONE', #233, #215, #124 ) ;
#6 = ADVANCED_FACE ( 'NONE', ( #126 ), #41, .T. ) ;
#7 = ORIENTED_EDGE ( 'NONE', *, *, #47, .T. ) ;
#8 = CARTESIAN_POINT ( 'NONE',  ( 2.444036937190193601E-13, -7.347880794884121511E-15, 70.00000000000000000 ) ) ;
#9 = CIRCLE ( 'NONE', #227, 1.499999999999997558 ) ;
#10 = DIRECTION ( 'NONE',  ( 3.491481338843133355E-15, 5.678383429643911499E-16, 1.000000000000000000 ) ) ;
#11 = CARTESIAN_POINT ( 'NONE',  ( 3.682579907935872386E-14, 5.989177285561932170E-15, 10.54732805519177674 ) ) ;
#12 = DIRECTION ( 'NONE',  ( 0.0000000000000000000, 1.000000000000000000, 0.0000000000000000000 ) ) ;
#13 = AXIS2_PLACEMENT_3D ( 'NONE', #141, #214, #43 ) ;
#14 = DIRECTION ( 'NONE',  ( 3.491481338843133355E-15, -1.049697256412017316E-16, 1.000000000000000000 ) ) ;
#15 = EDGE_CURVE ( 'NONE', #180, #180, #201, .T. ) ;
#16 = CARTESIAN_POINT ( 'NONE',  ( 2.444036937190193601E-13, 1.199999999999990186, 70.00000000000000000 ) ) ;
#17 = AXIS2_PLACEMENT_3D ( 'NONE', #8, #122, #85 ) ;
#18 = COORDINATED_UNIVERSAL_TIME_OFFSET ( 1, 0, .AHEAD. ) ;
#19 = DATE_AND_TIME ( #169, #157 ) ;
#20 = AXIS2_PLACEMENT_3D ( 'NONE', #172, #161, #236 ) ;
#21 =( GEOMETRIC_REPRESENTATION_CONTEXT ( 3 ) GLOBAL_UNCERTAINTY_ASSIGNED_CONTEXT ( ( #88 ) ) GLOBAL_UNIT_ASSIGNED_CONTEXT ( ( #93, #72, #181 ) ) REPRESENTATION_CONTEXT ( 'NONE', 'WORKASPACE' ) );
#22 = COORDINATED_UNIVERSAL_TIME_OFFSET ( 1, 0, .AHEAD. ) ;
#23 = FACE_OUTER_BOUND ( 'NONE', #125, .T. ) ;
#24 = EDGE_LOOP ( 'NONE', ( #36 ) ) ;
#25 = EDGE_LOOP ( 'NONE', ( #61 ) ) ;
#26 = CIRCLE ( 'NONE', #97, 1.808999999999992392 ) ;
#27 = DIRECTION ( 'NONE',  ( -3.491481338843133355E-15, -5.678383429643911499E-16, -1.000000000000000000 ) ) ;
#28 = APPROVAL ( #229, 'UNSPECIFIED' ) ;
#29 = ADVANCED_FACE ( 'NONE', ( #198, #23 ), #128, .T. ) ;
#30 = VERTEX_POINT ( 'NONE', #164 ) ;
#31 = AXIS2_PLACEMENT_3D ( 'NONE', #145, #48, #12 ) ;
#32 = VERTEX_POINT ( 'NONE', #109 ) ;
#33 = FACE_OUTER_BOUND ( 'NONE', #140, .T. ) ;
#34 = CARTESIAN_POINT ( 'NONE',  ( -1.892735826383154569E-31, 1.664662432702592509, -5.421010862427522170E-17 ) ) ;
#35 = APPROVAL_ROLE ( '' ) ;
#36 = ORIENTED_EDGE ( 'NONE', *, *, #15, .T. ) ;
#37 = COORDINATED_UNIVERSAL_TIME_OFFSET ( 1, 0, .AHEAD. ) ;
#38 = PERSON_AND_ORGANIZATION ( #127, #231 ) ;
#39 = ORIENTED_EDGE ( 'NONE', *, *, #45, .T. ) ;
#40 = APPLICATION_PROTOCOL_DEFINITION ( 'international standard', 'config_control_design', 1994, #212 ) ;
#41 = PLANE ( 'NONE',  #1 ) ;
#42 = CIRCLE ( 'NONE', #149, 1.664662432702592509 ) ;
#43 = DIRECTION ( 'NONE',  ( 0.0000000000000000000, 1.000000000000000000, 0.0000000000000000000 ) ) ;
#44 = EDGE_LOOP ( 'NONE', ( #160 ) ) ;
#45 = EDGE_CURVE ( 'NONE', #162, #162, #123, .T. ) ;
#46 = ORIENTED_EDGE ( 'NONE', *, *, #45, .F. ) ;
#47 = EDGE_CURVE ( 'NONE', #238, #238, #26, .T. ) ;
#48 = DIRECTION ( 'NONE',  ( -3.491481338843133355E-15, 1.049697256412017316E-16, -1.000000000000000000 ) ) ;
#49 = PRODUCT_DEFINITION_FORMATION_WITH_SPECIFIED_SOURCE ( 'ANY', '', #59, .NOT_KNOWN. ) ;
#50 = CARTESIAN_POINT ( 'NONE',  ( 2.433562493173664138E-13, 1.499999999999990230, 69.70000000000001705 ) ) ;
#51 = MANIFOLD_SOLID_BREP ( 'Corps-Déplacer/Copier1[2]', #137 ) ;
#52 = DIRECTION ( 'NONE',  ( 3.664998382197393967E-31, 1.000000000000000000, 1.049697256412017316E-16 ) ) ;
#53 = APPROVAL_STATUS ( 'not_yet_approved' ) ;
#54 = COORDINATED_UNIVERSAL_TIME_OFFSET ( 1, 0, .AHEAD. ) ;
#55 = MANIFOLD_SOLID_BREP ( 'Corps-Déplacer/Copier1[1]', #91 ) ;
#56 = CC_DESIGN_PERSON_AND_ORGANIZATION_ASSIGNMENT ( #99, #208, ( #49 ) ) ;
#57 = PERSON_AND_ORGANIZATION_ROLE ( 'design_owner' ) ;
#58 = CONICAL_SURFACE ( 'NONE', #20, 1.499999999999997558, 0.7853981633974573828 ) ;
#59 = PRODUCT ( '321265', '321265', '', ( #204 ) ) ;
#60 = COORDINATED_UNIVERSAL_TIME_OFFSET ( 1, 0, .AHEAD. ) ;
#61 = ORIENTED_EDGE ( 'NONE', *, *, #110, .F. ) ;
#62 = FACE_BOUND ( 'NONE', #24, .T. ) ;
#63 = LOCAL_TIME ( 14, 1, 58.00000000000000000, #54 ) ;
#64 = ORIENTED_EDGE ( 'NONE', *, *, #175, .T. ) ;
#65 = APPROVAL ( #190, 'UNSPECIFIED' ) ;
#66 = DIRECTION ( 'NONE',  ( 0.0000000000000000000, 1.000000000000000000, 0.0000000000000000000 ) ) ;
#67 = LOCAL_TIME ( 14, 1, 58.00000000000000000, #60 ) ;
#68 = FACE_OUTER_BOUND ( 'NONE', #194, .T. ) ;
#69 = CARTESIAN_POINT ( 'NONE',  ( 0.0000000000000000000, 0.0000000000000000000, 0.0000000000000000000 ) ) ;
#70 = ADVANCED_FACE ( 'NONE', ( #62, #103 ), #58, .T. ) ;
#71 = DESIGN_CONTEXT ( 'detailed design', #212, 'design' ) ;
#72 =( NAMED_UNIT ( * ) PLANE_ANGLE_UNIT ( ) SI_UNIT ( $, .RADIAN. ) );
#73 = PLANE ( 'NONE',  #183 ) ;
#74 = VERTEX_POINT ( 'NONE', #50 ) ;
#75 = PERSON_AND_ORGANIZATION_ROLE ( 'design_supplier' ) ;
#76 = ORIENTED_EDGE ( 'NONE', *, *, #110, .T. ) ;
#77 = AXIS2_PLACEMENT_3D ( 'NONE', #132, #200, #111 ) ;
#78 = CALENDAR_DATE ( 2021, 26, 11 ) ;
#79 = CALENDAR_DATE ( 2021, 26, 11 ) ;
#80 = LOCAL_TIME ( 14, 1, 58.00000000000000000, #18 ) ;
#81 = DIRECTION ( 'NONE',  ( -3.406841250436252768E-30, 1.000000000000000000, -9.589405616234464130E-16 ) ) ;
#82 = DIRECTION ( 'NONE',  ( -1.982596977939778706E-30, 1.000000000000000000, -5.678383429643911499E-16 ) ) ;
#83 = CC_DESIGN_PERSON_AND_ORGANIZATION_ASSIGNMENT ( #95, #75, ( #49 ) ) ;
#84 = AXIS2_PLACEMENT_3D ( 'NONE', #107, #90, #178 ) ;
#85 = DIRECTION ( 'NONE',  ( 0.0000000000000000000, 1.000000000000000000, 0.0000000000000000000 ) ) ;
#86 = EDGE_LOOP ( 'NONE', ( #197 ) ) ;
#87 = PLANE ( 'NONE',  #207 ) ;
#88 = UNCERTAINTY_MEASURE_WITH_UNIT (LENGTH_MEASURE( 1.000000000000000082E-05 ), #93, 'distance_accuracy_value', 'NONE');
#89 = CARTESIAN_POINT ( 'NONE',  ( 2.444036937190193601E-13, -7.347880794884121511E-15, 70.00000000000000000 ) ) ;
#90 = DIRECTION ( 'NONE',  ( 0.0000000000000000000, 0.0000000000000000000, 1.000000000000000000 ) ) ;
#91 = CLOSED_SHELL ( 'NONE', ( #138, #70, #114, #159, #6 ) ) ;
#92 = FACE_BOUND ( 'NONE', #120, .T. ) ;
#93 =( LENGTH_UNIT ( ) NAMED_UNIT ( * ) SI_UNIT ( .MILLI., .METRE. ) );
#94 = ADVANCED_FACE ( 'NONE', ( #68 ), #139, .T. ) ;
#95 = PERSON_AND_ORGANIZATION ( #127, #231 ) ;
#96 = APPROVAL_ROLE ( '' ) ;
#97 = AXIS2_PLACEMENT_3D ( 'NONE', #199, #27, #81 ) ;
#98 = CC_DESIGN_APPROVAL ( #196, ( #147 ) ) ;
#99 = PERSON_AND_ORGANIZATION ( #127, #231 ) ;
#100 = CIRCLE ( 'NONE', #13, 1.808999999999999719 ) ;
#101 = CARTESIAN_POINT ( 'NONE',  ( -1.744814145502178338E-30, 1.664662432702592509, -4.997346330025938250E-16 ) ) ;
#102 = CC_DESIGN_PERSON_AND_ORGANIZATION_ASSIGNMENT ( #116, #187, ( #147 ) ) ;
#103 = FACE_OUTER_BOUND ( 'NONE', #86, .T. ) ;
#104 = FACE_OUTER_BOUND ( 'NONE', #191, .T. ) ;
#105 = DIRECTION ( 'NONE',  ( -3.491481338843133355E-15, 1.049697256412017316E-16, -1.000000000000000000 ) ) ;
#106 = EDGE_LOOP ( 'NONE', ( #7 ) ) ;
#107 = CARTESIAN_POINT ( 'NONE',  ( 0.0000000000000000000, 0.0000000000000000000, 0.0000000000000000000 ) ) ;
#108 = CARTESIAN_POINT ( 'NONE',  ( 2.433562493173664138E-13, -7.316389877191761450E-15, 69.70000000000001705 ) ) ;
#109 = CARTESIAN_POINT ( 'NONE',  ( 8.728703347107831416E-16, 1.808999999999998609, 0.2499999999999999445 ) ) ;
#110 = EDGE_CURVE ( 'NONE', #30, #30, #100, .T. ) ;
#111 = DIRECTION ( 'NONE',  ( -2.022811992446518096E-30, 1.000000000000000000, -5.693709584639193417E-16 ) ) ;
#112 = AXIS2_PLACEMENT_3D ( 'NONE', #230, #105, #66 ) ;
#113 = CARTESIAN_POINT ( 'NONE',  ( 3.869445280877825814E-14, 1.499999999999991562, 11.08253175473057794 ) ) ;
#114 = ADVANCED_FACE ( 'NONE', ( #216, #142 ), #217, .T. ) ;
#115 = DATE_AND_TIME ( #189, #63 ) ;
#116 = PERSON_AND_ORGANIZATION ( #127, #231 ) ;
#117 = AXIS2_PLACEMENT_3D ( 'NONE', #101, #232, #82 ) ;
#118 = APPROVAL_PERSON_ORGANIZATION ( #4, #28, #96 ) ;
#119 = PRODUCT_RELATED_PRODUCT_CATEGORY ( 'detail', '', ( #59 ) ) ;
#120 = EDGE_LOOP ( 'NONE', ( #177 ) ) ;
#121 = PRODUCT_DEFINITION_SHAPE ( 'NONE', 'NONE',  #147 ) ;
#122 = DIRECTION ( 'NONE',  ( -3.491481338843133355E-15, 1.049697256412017316E-16, -1.000000000000000000 ) ) ;
#123 = CIRCLE ( 'NONE', #112, 1.499999999999992673 ) ;
#124 = DIRECTION ( 'NONE',  ( -1.982596977939778356E-30, 1.000000000000000000, -5.678383429643911499E-16 ) ) ;
#125 = EDGE_LOOP ( 'NONE', ( #155 ) ) ;
#126 = FACE_OUTER_BOUND ( 'NONE', #158, .T. ) ;
#127 = PERSON ( 'UNSPECIFIED', 'UNSPECIFIED', 'UNSPECIFIED', ('UNSPECIFIED'), ('UNSPECIFIED'), ('UNSPECIFIED') ) ;
#128 = CYLINDRICAL_SURFACE ( 'NONE', #5, 1.808999999999995500 ) ;
#129 = FACE_BOUND ( 'NONE', #176, .T. ) ;
#130 = EDGE_CURVE ( 'NONE', #74, #74, #9, .T. ) ;
#131 = LOCAL_TIME ( 14, 1, 58.00000000000000000, #22 ) ;
#132 = CARTESIAN_POINT ( 'NONE',  ( 8.728703347107867901E-16, 1.419595857410983545E-16, 0.2500000000000009992 ) ) ;
#133 = DIRECTION ( 'NONE',  ( -3.664998382197393967E-31, -1.000000000000000000, -1.049697256412017316E-16 ) ) ;
#134 = CIRCLE ( 'NONE', #77, 1.808999999999998387 ) ;
#135 = APPROVAL_ROLE ( '' ) ;
#136 = PERSON_AND_ORGANIZATION ( #127, #231 ) ;
#137 = CLOSED_SHELL ( 'NONE', ( #3, #29, #167, #94 ) ) ;
#138 = ADVANCED_FACE ( 'NONE', ( #33 ), #73, .T. ) ;
#139 = PLANE ( 'NONE',  #117 ) ;
#140 = EDGE_LOOP ( 'NONE', ( #185 ) ) ;
#141 = CARTESIAN_POINT ( 'NONE',  ( 3.682579907935871755E-14, -1.107150132201230401E-15, 10.54732805519177496 ) ) ;
#142 = FACE_OUTER_BOUND ( 'NONE', #153, .T. ) ;
#143 = APPROVAL_PERSON_ORGANIZATION ( #38, #65, #35 ) ;
#144 = APPLICATION_CONTEXT ( 'configuration controlled 3d designs of mechanical parts and assemblies' ) ;
#145 = CARTESIAN_POINT ( 'NONE',  ( 3.682579907935871755E-14, -1.107150132201230401E-15, 10.54732805519177496 ) ) ;
#146 = DIRECTION ( 'NONE',  ( 0.0000000000000000000, 1.000000000000000000, 0.0000000000000000000 ) ) ;
#147 = PRODUCT_DEFINITION ( 'UNKNOWN', '', #49, #71 ) ;
#148 = DIRECTION ( 'NONE',  ( -1.982596977939778706E-30, 1.000000000000000000, -5.678383429643911499E-16 ) ) ;
#149 = AXIS2_PLACEMENT_3D ( 'NONE', #150, #219, #148 ) ;
#150 = CARTESIAN_POINT ( 'NONE',  ( 3.111081125727724448E-30, 5.059718153459658546E-31, 8.910490487566372066E-16 ) ) ;
#151 = APPROVAL_DATE_TIME ( #115, #28 ) ;
#152 = SECURITY_CLASSIFICATION_LEVEL ( 'unclassified' ) ;
#153 = EDGE_LOOP ( 'NONE', ( #46 ) ) ;
#154 = EDGE_CURVE ( 'NONE', #163, #163, #42, .T. ) ;
#155 = ORIENTED_EDGE ( 'NONE', *, *, #175, .F. ) ;
#156 = CARTESIAN_POINT ( 'NONE',  ( 3.682579907935872386E-14, 1.808999999999998609, 10.54732805519177674 ) ) ;
#157 = LOCAL_TIME ( 14, 1, 58.00000000000000000, #37 ) ;
#158 = EDGE_LOOP ( 'NONE', ( #76 ) ) ;
#159 = ADVANCED_FACE ( 'NONE', ( #129, #223 ), #179, .T. ) ;
#160 = ORIENTED_EDGE ( 'NONE', *, *, #130, .T. ) ;
#161 = DIRECTION ( 'NONE',  ( -3.491481338843133355E-15, 1.049697256412017316E-16, -1.000000000000000000 ) ) ;
#162 = VERTEX_POINT ( 'NONE', #113 ) ;
#163 = VERTEX_POINT ( 'NONE', #34 ) ;
#164 = CARTESIAN_POINT ( 'NONE',  ( 3.682579907935871755E-14, 1.808999999999998609, 10.54732805519177496 ) ) ;
#165 = CALENDAR_DATE ( 2021, 26, 11 ) ;
#166 = DATE_TIME_ROLE ( 'classification_date' ) ;
#167 = ADVANCED_FACE ( 'NONE', ( #240, #92 ), #218, .T. ) ;
#168 = ORIENTED_EDGE ( 'NONE', *, *, #47, .F. ) ;
#169 = CALENDAR_DATE ( 2021, 26, 11 ) ;
#170 = PERSON_AND_ORGANIZATION ( #127, #231 ) ;
#171 = AXIS2_PLACEMENT_3D ( 'NONE', #182, #206, #203 ) ;
#172 = CARTESIAN_POINT ( 'NONE',  ( 2.433562493173664138E-13, -7.316389877191761450E-15, 69.70000000000001705 ) ) ;
#173 = ORIENTED_EDGE ( 'NONE', *, *, #154, .T. ) ;
#174 = DIRECTION ( 'NONE',  ( 3.664998382197393967E-31, 1.000000000000000000, 1.049697256412017316E-16 ) ) ;
#175 = EDGE_CURVE ( 'NONE', #32, #32, #134, .T. ) ;
#176 = EDGE_LOOP ( 'NONE', ( #39 ) ) ;
#177 = ORIENTED_EDGE ( 'NONE', *, *, #154, .F. ) ;
#178 = DIRECTION ( 'NONE',  ( 1.000000000000000000, 0.0000000000000000000, 0.0000000000000000000 ) ) ;
#179 = CONICAL_SURFACE ( 'NONE', #31, 1.808999999999999719, 0.5235987755982922653 ) ;
#180 = VERTEX_POINT ( 'NONE', #16 ) ;
#181 =( NAMED_UNIT ( * ) SI_UNIT ( $, .STERADIAN. ) SOLID_ANGLE_UNIT ( ) );
#182 = CARTESIAN_POINT ( 'NONE',  ( 3.111081125727724448E-30, 5.059718153459658546E-31, 8.910490487566372066E-16 ) ) ;
#183 = AXIS2_PLACEMENT_3D ( 'NONE', #89, #14, #133 ) ;
#184 = PERSON_AND_ORGANIZATION_ROLE ( 'classification_officer' ) ;
#185 = ORIENTED_EDGE ( 'NONE', *, *, #15, .F. ) ;
#186 = CC_DESIGN_PERSON_AND_ORGANIZATION_ASSIGNMENT ( #170, #57, ( #59 ) ) ;
#187 = PERSON_AND_ORGANIZATION_ROLE ( 'creator' ) ;
#188 = CC_DESIGN_APPROVAL ( #28, ( #49 ) ) ;
#189 = CALENDAR_DATE ( 2021, 26, 11 ) ;
#190 = APPROVAL_STATUS ( 'not_yet_approved' ) ;
#191 = EDGE_LOOP ( 'NONE', ( #168 ) ) ;
#192 = SHAPE_DEFINITION_REPRESENTATION ( #121, #222 ) ;
#193 = SECURITY_CLASSIFICATION ( '', '', #152 ) ;
#194 = EDGE_LOOP ( 'NONE', ( #173 ) ) ;
#195 = DIRECTION ( 'NONE',  ( -3.491481338843133355E-15, 1.049697256412017316E-16, -1.000000000000000000 ) ) ;
#196 = APPROVAL ( #53, 'UNSPECIFIED' ) ;
#197 = ORIENTED_EDGE ( 'NONE', *, *, #130, .F. ) ;
#198 = FACE_OUTER_BOUND ( 'NONE', #106, .T. ) ;
#199 = CARTESIAN_POINT ( 'NONE',  ( 3.682579907935872386E-14, 5.989177285561932170E-15, 10.54732805519177674 ) ) ;
#200 = DIRECTION ( 'NONE',  ( -3.491481338843133355E-15, -5.678383429643911499E-16, -1.000000000000000000 ) ) ;
#201 = CIRCLE ( 'NONE', #17, 1.199999999999997513 ) ;
#202 = APPROVAL_PERSON_ORGANIZATION ( #136, #196, #135 ) ;
#203 = DIRECTION ( 'NONE',  ( 1.982596977939778706E-30, -1.000000000000000000, 5.678383429643911499E-16 ) ) ;
#204 = MECHANICAL_CONTEXT ( 'NONE', #144, 'mechanical' ) ;
#205 = CC_DESIGN_DATE_AND_TIME_ASSIGNMENT ( #19, #225, ( #147 ) ) ;
#206 = DIRECTION ( 'NONE',  ( 3.491481338843133355E-15, 5.678383429643911499E-16, 1.000000000000000000 ) ) ;
#207 = AXIS2_PLACEMENT_3D ( 'NONE', #11, #10, #235 ) ;
#208 = PERSON_AND_ORGANIZATION_ROLE ( 'creator' ) ;
#209 = APPROVAL_DATE_TIME ( #242, #196 ) ;
#210 = DATE_AND_TIME ( #79, #80 ) ;
#211 = PERSON_AND_ORGANIZATION ( #127, #231 ) ;
#212 = APPLICATION_CONTEXT ( 'configuration controlled 3d designs of mechanical parts and assemblies' ) ;
#213 = DIRECTION ( 'NONE',  ( -3.491481338843133355E-15, 1.049697256412017316E-16, -1.000000000000000000 ) ) ;
#214 = DIRECTION ( 'NONE',  ( -3.491481338843133355E-15, 1.049697256412017316E-16, -1.000000000000000000 ) ) ;
#215 = DIRECTION ( 'NONE',  ( -3.491481338843133355E-15, -5.678383429643911499E-16, -1.000000000000000000 ) ) ;
#216 = FACE_OUTER_BOUND ( 'NONE', #44, .T. ) ;
#217 = CYLINDRICAL_SURFACE ( 'NONE', #237, 1.499999999999995337 ) ;
#218 = CONICAL_SURFACE ( 'NONE', #171, 1.664662432702592509, 0.5235987755982970393 ) ;
#219 = DIRECTION ( 'NONE',  ( -3.491481338843133355E-15, -5.678383429643911499E-16, -1.000000000000000000 ) ) ;
#220 = CARTESIAN_POINT ( 'NONE',  ( 3.682579907935871755E-14, 1.808999999999998609, 10.54732805519177496 ) ) ;
#221 = APPLICATION_PROTOCOL_DEFINITION ( 'international standard', 'config_control_design', 1994, #144 ) ;
#222 = ADVANCED_BREP_SHAPE_REPRESENTATION ( '321265', ( #55, #51, #84 ), #21 ) ;
#223 = FACE_OUTER_BOUND ( 'NONE', #25, .T. ) ;
#224 = CC_DESIGN_APPROVAL ( #65, ( #193 ) ) ;
#225 = DATE_TIME_ROLE ( 'creation_date' ) ;
#226 = DATE_AND_TIME ( #165, #67 ) ;
#227 = AXIS2_PLACEMENT_3D ( 'NONE', #108, #241, #146 ) ;
#228 = CC_DESIGN_DATE_AND_TIME_ASSIGNMENT ( #210, #166, ( #193 ) ) ;
#229 = APPROVAL_STATUS ( 'not_yet_approved' ) ;
#230 = CARTESIAN_POINT ( 'NONE',  ( 3.869445280877825814E-14, -1.163330317703974832E-15, 11.08253175473057794 ) ) ;
#231 = ORGANIZATION ( 'UNSPECIFIED', 'UNSPECIFIED', '' ) ;
#232 = DIRECTION ( 'NONE',  ( -3.491481338843133355E-15, -5.678383429643911499E-16, -1.000000000000000000 ) ) ;
#233 = CARTESIAN_POINT ( 'NONE',  ( 0.0000000000000000000, 0.0000000000000000000, 0.0000000000000000000 ) ) ;
#234 = CC_DESIGN_SECURITY_CLASSIFICATION ( #193, ( #49 ) ) ;
#235 = DIRECTION ( 'NONE',  ( 1.982596977939778706E-30, -1.000000000000000000, 5.678383429643911499E-16 ) ) ;
#236 = DIRECTION ( 'NONE',  ( 0.0000000000000000000, 1.000000000000000000, 0.0000000000000000000 ) ) ;
#237 = AXIS2_PLACEMENT_3D ( 'NONE', #69, #213, #52 ) ;
#238 = VERTEX_POINT ( 'NONE', #220 ) ;
#239 = CC_DESIGN_PERSON_AND_ORGANIZATION_ASSIGNMENT ( #211, #184, ( #193 ) ) ;
#240 = FACE_OUTER_BOUND ( 'NONE', #243, .T. ) ;
#241 = DIRECTION ( 'NONE',  ( -3.491481338843133355E-15, 1.049697256412017316E-16, -1.000000000000000000 ) ) ;
#242 = DATE_AND_TIME ( #78, #131 ) ;
#243 = EDGE_LOOP ( 'NONE', ( #64 ) ) ;
ENDSEC;
END-ISO-10303-21;
