ISO-10303-21;
HEADER;
FILE_DESCRIPTION (( 'STEP AP203' ),
    '1' );
FILE_NAME ('321264.step',
    '2021-11-26T13:01:57',
    ( '' ),
    ( '' ),
    'SwSTEP 2.0',
    'SolidWorks 2019',
    '' );
FILE_SCHEMA (( 'CONFIG_CONTROL_DESIGN' ));
ENDSEC;

DATA;
#1 = AXIS2_PLACEMENT_3D ( 'NONE', #80, #48, #87 ) ;
#2 = VERTEX_POINT ( 'NONE', #27 ) ;
#3 = DIRECTION ( 'NONE',  ( 3.664998382197393967E-31, 1.000000000000000000, 1.049697256412017316E-16 ) ) ;
#4 = EDGE_LOOP ( 'NONE', ( #50 ) ) ;
#5 = CARTESIAN_POINT ( 'NONE',  ( 8.728703347107831416E-16, 1.803999999999998716, 0.2499999999999999445 ) ) ;
#6 = CC_DESIGN_APPROVAL ( #20, ( #155 ) ) ;
#7 = ORIENTED_EDGE ( 'NONE', *, *, #125, .T. ) ;
#8 = EDGE_CURVE ( 'NONE', #66, #66, #218, .T. ) ;
#9 = DIRECTION ( 'NONE',  ( -3.491481338843133355E-15, 1.049697256412017316E-16, -1.000000000000000000 ) ) ;
#10 = ORIENTED_EDGE ( 'NONE', *, *, #8, .T. ) ;
#11 = PERSON_AND_ORGANIZATION_ROLE ( 'classification_officer' ) ;
#12 = APPROVAL_PERSON_ORGANIZATION ( #145, #20, #215 ) ;
#13 = CC_DESIGN_PERSON_AND_ORGANIZATION_ASSIGNMENT ( #127, #128, ( #155 ) ) ;
#14 = APPROVAL_DATE_TIME ( #159, #199 ) ;
#15 = PERSON_AND_ORGANIZATION ( #227, #176 ) ;
#16 = CC_DESIGN_PERSON_AND_ORGANIZATION_ASSIGNMENT ( #232, #11, ( #168 ) ) ;
#17 = CC_DESIGN_APPROVAL ( #104, ( #168 ) ) ;
#18 = MANIFOLD_SOLID_BREP ( 'Corps-Déplacer/Copier1[1]', #22 ) ;
#19 = CARTESIAN_POINT ( 'NONE',  ( 2.444036937190193601E-13, -7.347880794884121511E-15, 70.00000000000000000 ) ) ;
#20 = APPROVAL ( #180, 'UNSPECIFIED' ) ;
#21 = FACE_OUTER_BOUND ( 'NONE', #81, .T. ) ;
#22 = CLOSED_SHELL ( 'NONE', ( #86, #230, #166, #187, #243 ) ) ;
#23 = AXIS2_PLACEMENT_3D ( 'NONE', #224, #197, #119 ) ;
#24 = VERTEX_POINT ( 'NONE', #79 ) ;
#25 = EDGE_LOOP ( 'NONE', ( #103 ) ) ;
#26 = PRODUCT_DEFINITION_SHAPE ( 'NONE', 'NONE',  #146 ) ;
#27 = CARTESIAN_POINT ( 'NONE',  ( 2.433562493173664138E-13, 1.499999999999990230, 69.70000000000001705 ) ) ;
#28 = EDGE_LOOP ( 'NONE', ( #228 ) ) ;
#29 = CARTESIAN_POINT ( 'NONE',  ( 3.685603619472150521E-14, 5.987056135084487604E-15, 10.55598830922962073 ) ) ;
#30 = AXIS2_PLACEMENT_3D ( 'NONE', #55, #56, #129 ) ;
#31 = VERTEX_POINT ( 'NONE', #195 ) ;
#32 = CC_DESIGN_PERSON_AND_ORGANIZATION_ASSIGNMENT ( #15, #179, ( #155 ) ) ;
#33 = CIRCLE ( 'NONE', #124, 1.499999999999997558 ) ;
#34 = PERSON_AND_ORGANIZATION_ROLE ( 'creator' ) ;
#35 = APPROVAL_PERSON_ORGANIZATION ( #216, #199, #58 ) ;
#36 = COORDINATED_UNIVERSAL_TIME_OFFSET ( 1, 0, .AHEAD. ) ;
#37 = PERSON_AND_ORGANIZATION ( #227, #176 ) ;
#38 = DIRECTION ( 'NONE',  ( -1.980268844365491986E-30, 1.000000000000000000, -5.671715390068886325E-16 ) ) ;
#39 =( GEOMETRIC_REPRESENTATION_CONTEXT ( 3 ) GLOBAL_UNCERTAINTY_ASSIGNED_CONTEXT ( ( #201 ) ) GLOBAL_UNIT_ASSIGNED_CONTEXT ( ( #207, #115, #140 ) ) REPRESENTATION_CONTEXT ( 'NONE', 'WORKASPACE' ) );
#40 = CARTESIAN_POINT ( 'NONE',  ( 8.728703347107867901E-16, 1.417928847517227005E-16, 0.2500000000000009992 ) ) ;
#41 = EDGE_CURVE ( 'NONE', #24, #24, #116, .T. ) ;
#42 = AXIS2_PLACEMENT_3D ( 'NONE', #96, #9, #62 ) ;
#43 = DIRECTION ( 'NONE',  ( -3.491481338843133355E-15, -5.671715390068885339E-16, -1.000000000000000000 ) ) ;
#44 = CARTESIAN_POINT ( 'NONE',  ( 3.685603619472149259E-14, 1.803999999999998716, 10.55598830922961895 ) ) ;
#45 = FACE_OUTER_BOUND ( 'NONE', #213, .T. ) ;
#46 = EDGE_LOOP ( 'NONE', ( #10 ) ) ;
#47 = AXIS2_PLACEMENT_3D ( 'NONE', #114, #191, #229 ) ;
#48 = DIRECTION ( 'NONE',  ( 3.491481338843133355E-15, 5.671715390068885339E-16, 1.000000000000000000 ) ) ;
#49 = ORIENTED_EDGE ( 'NONE', *, *, #144, .F. ) ;
#50 = ORIENTED_EDGE ( 'NONE', *, *, #110, .F. ) ;
#51 = FACE_OUTER_BOUND ( 'NONE', #28, .T. ) ;
#52 = DIRECTION ( 'NONE',  ( 0.0000000000000000000, 1.000000000000000000, 0.0000000000000000000 ) ) ;
#53 = CONICAL_SURFACE ( 'NONE', #47, 1.803999999999999826, 0.5235987755982930425 ) ;
#54 = SECURITY_CLASSIFICATION_LEVEL ( 'unclassified' ) ;
#55 = CARTESIAN_POINT ( 'NONE',  ( 0.0000000000000000000, 0.0000000000000000000, 0.0000000000000000000 ) ) ;
#56 = DIRECTION ( 'NONE',  ( 0.0000000000000000000, 0.0000000000000000000, 1.000000000000000000 ) ) ;
#57 = DATE_TIME_ROLE ( 'creation_date' ) ;
#58 = APPROVAL_ROLE ( '' ) ;
#59 = CARTESIAN_POINT ( 'NONE',  ( 3.685603619472149890E-14, -1.108059196691566322E-15, 10.55598830922962073 ) ) ;
#60 = PRODUCT_RELATED_PRODUCT_CATEGORY ( 'detail', '', ( #222 ) ) ;
#61 = VERTEX_POINT ( 'NONE', #212 ) ;
#62 = DIRECTION ( 'NONE',  ( 3.664998382197393967E-31, 1.000000000000000000, 1.049697256412017316E-16 ) ) ;
#63 = LOCAL_TIME ( 14, 1, 57.00000000000000000, #200 ) ;
#64 = VERTEX_POINT ( 'NONE', #5 ) ;
#65 = ORIENTED_EDGE ( 'NONE', *, *, #144, .T. ) ;
#66 = VERTEX_POINT ( 'NONE', #226 ) ;
#67 = DIRECTION ( 'NONE',  ( -3.491481338843133355E-15, 1.049697256412017316E-16, -1.000000000000000000 ) ) ;
#68 = FACE_OUTER_BOUND ( 'NONE', #4, .T. ) ;
#69 = EDGE_LOOP ( 'NONE', ( #194 ) ) ;
#70 = CC_DESIGN_DATE_AND_TIME_ASSIGNMENT ( #105, #57, ( #146 ) ) ;
#71 = LOCAL_TIME ( 14, 1, 57.00000000000000000, #202 ) ;
#72 = SHAPE_DEFINITION_REPRESENTATION ( #26, #208 ) ;
#73 = CALENDAR_DATE ( 2021, 26, 11 ) ;
#74 = APPLICATION_CONTEXT ( 'configuration controlled 3d designs of mechanical parts and assemblies' ) ;
#75 = COORDINATED_UNIVERSAL_TIME_OFFSET ( 1, 0, .AHEAD. ) ;
#76 = CARTESIAN_POINT ( 'NONE',  ( 2.444036937190193601E-13, -7.347880794884121511E-15, 70.00000000000000000 ) ) ;
#77 = LOCAL_TIME ( 14, 1, 57.00000000000000000, #93 ) ;
#78 = ADVANCED_FACE ( 'NONE', ( #123 ), #198, .T. ) ;
#79 = CARTESIAN_POINT ( 'NONE',  ( 3.869445280877825814E-14, 1.499999999999991562, 11.08253175473057794 ) ) ;
#80 = CARTESIAN_POINT ( 'NONE',  ( 3.097304225006467888E-30, 5.031396801483469810E-31, 8.871031875635708258E-16 ) ) ;
#81 = EDGE_LOOP ( 'NONE', ( #65 ) ) ;
#82 = ADVANCED_FACE ( 'NONE', ( #160 ), #181, .T. ) ;
#83 = EDGE_LOOP ( 'NONE', ( #174 ) ) ;
#84 = APPROVAL_PERSON_ORGANIZATION ( #203, #104, #94 ) ;
#85 = DIRECTION ( 'NONE',  ( -3.416283715099323317E-30, 1.000000000000000000, -9.615983791445753881E-16 ) ) ;
#86 = ADVANCED_FACE ( 'NONE', ( #220 ), #204, .T. ) ;
#87 = DIRECTION ( 'NONE',  ( 1.980268844365491286E-30, -1.000000000000000000, 5.671715390068886325E-16 ) ) ;
#88 = CARTESIAN_POINT ( 'NONE',  ( -1.737925695141549882E-30, 1.659662432702592616, -4.977617024060606839E-16 ) ) ;
#89 = CALENDAR_DATE ( 2021, 26, 11 ) ;
#90 = CLOSED_SHELL ( 'NONE', ( #82, #239, #175, #78 ) ) ;
#91 = APPLICATION_CONTEXT ( 'configuration controlled 3d designs of mechanical parts and assemblies' ) ;
#92 = APPROVAL_DATE_TIME ( #130, #20 ) ;
#93 = COORDINATED_UNIVERSAL_TIME_OFFSET ( 1, 0, .AHEAD. ) ;
#94 = APPROVAL_ROLE ( '' ) ;
#95 = DIRECTION ( 'NONE',  ( 3.491481338843133355E-15, -1.049697256412017316E-16, 1.000000000000000000 ) ) ;
#96 = CARTESIAN_POINT ( 'NONE',  ( 0.0000000000000000000, 0.0000000000000000000, 0.0000000000000000000 ) ) ;
#97 = CARTESIAN_POINT ( 'NONE',  ( -1.892735826383161356E-31, 1.659662432702592616, -5.421010862427522170E-17 ) ) ;
#98 = ORIENTED_EDGE ( 'NONE', *, *, #151, .F. ) ;
#99 = PLANE ( 'NONE',  #219 ) ;
#100 = EDGE_LOOP ( 'NONE', ( #142 ) ) ;
#101 = DIRECTION ( 'NONE',  ( -3.491481338843133355E-15, -5.671715390068885339E-16, -1.000000000000000000 ) ) ;
#102 = CARTESIAN_POINT ( 'NONE',  ( 0.0000000000000000000, 0.0000000000000000000, 0.0000000000000000000 ) ) ;
#103 = ORIENTED_EDGE ( 'NONE', *, *, #131, .T. ) ;
#104 = APPROVAL ( #235, 'UNSPECIFIED' ) ;
#105 = DATE_AND_TIME ( #186, #165 ) ;
#106 = AXIS2_PLACEMENT_3D ( 'NONE', #178, #67, #52 ) ;
#107 = CC_DESIGN_DATE_AND_TIME_ASSIGNMENT ( #164, #141, ( #168 ) ) ;
#108 = PERSON_AND_ORGANIZATION ( #227, #176 ) ;
#109 = APPLICATION_PROTOCOL_DEFINITION ( 'international standard', 'config_control_design', 1994, #91 ) ;
#110 = EDGE_CURVE ( 'NONE', #2, #2, #33, .T. ) ;
#111 = CC_DESIGN_SECURITY_CLASSIFICATION ( #168, ( #155 ) ) ;
#112 = DIRECTION ( 'NONE',  ( -3.664998382197393967E-31, -1.000000000000000000, -1.049697256412017316E-16 ) ) ;
#113 = DIRECTION ( 'NONE',  ( 0.0000000000000000000, 1.000000000000000000, 0.0000000000000000000 ) ) ;
#114 = CARTESIAN_POINT ( 'NONE',  ( 3.685603619472149890E-14, -1.108059196691566322E-15, 10.55598830922962073 ) ) ;
#115 =( NAMED_UNIT ( * ) PLANE_ANGLE_UNIT ( ) SI_UNIT ( $, .RADIAN. ) );
#116 = CIRCLE ( 'NONE', #106, 1.499999999999992673 ) ;
#117 = AXIS2_PLACEMENT_3D ( 'NONE', #88, #158, #231 ) ;
#118 = CC_DESIGN_APPROVAL ( #199, ( #146 ) ) ;
#119 = DIRECTION ( 'NONE',  ( 0.0000000000000000000, 1.000000000000000000, 0.0000000000000000000 ) ) ;
#120 = FACE_OUTER_BOUND ( 'NONE', #83, .T. ) ;
#121 = EDGE_LOOP ( 'NONE', ( #98 ) ) ;
#122 = FACE_OUTER_BOUND ( 'NONE', #121, .T. ) ;
#123 = FACE_OUTER_BOUND ( 'NONE', #153, .T. ) ;
#124 = AXIS2_PLACEMENT_3D ( 'NONE', #240, #188, #149 ) ;
#125 = EDGE_CURVE ( 'NONE', #173, #173, #150, .T. ) ;
#126 = PERSON_AND_ORGANIZATION_ROLE ( 'design_owner' ) ;
#127 = PERSON_AND_ORGANIZATION ( #227, #176 ) ;
#128 = PERSON_AND_ORGANIZATION_ROLE ( 'design_supplier' ) ;
#129 = DIRECTION ( 'NONE',  ( 1.000000000000000000, 0.0000000000000000000, 0.0000000000000000000 ) ) ;
#130 = DATE_AND_TIME ( #167, #182 ) ;
#131 = EDGE_CURVE ( 'NONE', #31, #31, #233, .T. ) ;
#132 = AXIS2_PLACEMENT_3D ( 'NONE', #40, #171, #214 ) ;
#133 = DIRECTION ( 'NONE',  ( -3.491481338843133355E-15, 1.049697256412017316E-16, -1.000000000000000000 ) ) ;
#134 = DIRECTION ( 'NONE',  ( 0.0000000000000000000, 1.000000000000000000, 0.0000000000000000000 ) ) ;
#135 = AXIS2_PLACEMENT_3D ( 'NONE', #102, #223, #136 ) ;
#136 = DIRECTION ( 'NONE',  ( -1.980268844365491986E-30, 1.000000000000000000, -5.671715390068885339E-16 ) ) ;
#137 = FACE_OUTER_BOUND ( 'NONE', #46, .T. ) ;
#138 = AXIS2_PLACEMENT_3D ( 'NONE', #19, #95, #112 ) ;
#139 = ORIENTED_EDGE ( 'NONE', *, *, #8, .F. ) ;
#140 =( NAMED_UNIT ( * ) SI_UNIT ( $, .STERADIAN. ) SOLID_ANGLE_UNIT ( ) );
#141 = DATE_TIME_ROLE ( 'classification_date' ) ;
#142 = ORIENTED_EDGE ( 'NONE', *, *, #41, .F. ) ;
#143 = DESIGN_CONTEXT ( 'detailed design', #91, 'design' ) ;
#144 = EDGE_CURVE ( 'NONE', #61, #61, #192, .T. ) ;
#145 = PERSON_AND_ORGANIZATION ( #227, #176 ) ;
#146 = PRODUCT_DEFINITION ( 'UNKNOWN', '', #155, #143 ) ;
#147 = DIRECTION ( 'NONE',  ( -3.491481338843133355E-15, 1.049697256412017316E-16, -1.000000000000000000 ) ) ;
#148 = CIRCLE ( 'NONE', #132, 1.803999999999998494 ) ;
#149 = DIRECTION ( 'NONE',  ( 0.0000000000000000000, 1.000000000000000000, 0.0000000000000000000 ) ) ;
#150 = CIRCLE ( 'NONE', #169, 1.659662432702592616 ) ;
#151 = EDGE_CURVE ( 'NONE', #64, #64, #148, .T. ) ;
#152 = FACE_OUTER_BOUND ( 'NONE', #100, .T. ) ;
#153 = EDGE_LOOP ( 'NONE', ( #7 ) ) ;
#154 = FACE_BOUND ( 'NONE', #196, .T. ) ;
#155 = PRODUCT_DEFINITION_FORMATION_WITH_SPECIFIED_SOURCE ( 'ANY', '', #222, .NOT_KNOWN. ) ;
#156 = ORIENTED_EDGE ( 'NONE', *, *, #41, .T. ) ;
#157 = APPLICATION_PROTOCOL_DEFINITION ( 'international standard', 'config_control_design', 1994, #74 ) ;
#158 = DIRECTION ( 'NONE',  ( -3.491481338843133355E-15, -5.671715390068885339E-16, -1.000000000000000000 ) ) ;
#159 = DATE_AND_TIME ( #236, #71 ) ;
#160 = FACE_OUTER_BOUND ( 'NONE', #172, .T. ) ;
#161 = CC_DESIGN_PERSON_AND_ORGANIZATION_ASSIGNMENT ( #37, #34, ( #146 ) ) ;
#162 = MECHANICAL_CONTEXT ( 'NONE', #74, 'mechanical' ) ;
#163 = DIRECTION ( 'NONE',  ( 3.491481338843133355E-15, 5.671715390068885339E-16, 1.000000000000000000 ) ) ;
#164 = DATE_AND_TIME ( #73, #77 ) ;
#165 = LOCAL_TIME ( 14, 1, 57.00000000000000000, #36 ) ;
#166 = ADVANCED_FACE ( 'NONE', ( #51, #152 ), #210, .T. ) ;
#167 = CALENDAR_DATE ( 2021, 26, 11 ) ;
#168 = SECURITY_CLASSIFICATION ( '', '', #54 ) ;
#169 = AXIS2_PLACEMENT_3D ( 'NONE', #221, #43, #38 ) ;
#170 = FACE_BOUND ( 'NONE', #25, .T. ) ;
#171 = DIRECTION ( 'NONE',  ( -3.491481338843133355E-15, -5.671715390068885339E-16, -1.000000000000000000 ) ) ;
#172 = EDGE_LOOP ( 'NONE', ( #139 ) ) ;
#173 = VERTEX_POINT ( 'NONE', #97 ) ;
#174 = ORIENTED_EDGE ( 'NONE', *, *, #151, .T. ) ;
#175 = ADVANCED_FACE ( 'NONE', ( #120, #154 ), #209, .T. ) ;
#176 = ORGANIZATION ( 'UNSPECIFIED', 'UNSPECIFIED', '' ) ;
#177 = FACE_BOUND ( 'NONE', #225, .T. ) ;
#178 = CARTESIAN_POINT ( 'NONE',  ( 3.869445280877825814E-14, -1.163330317703974832E-15, 11.08253175473057794 ) ) ;
#179 = PERSON_AND_ORGANIZATION_ROLE ( 'creator' ) ;
#180 = APPROVAL_STATUS ( 'not_yet_approved' ) ;
#181 = PLANE ( 'NONE',  #241 ) ;
#182 = LOCAL_TIME ( 14, 1, 57.00000000000000000, #75 ) ;
#183 = APPROVAL_DATE_TIME ( #238, #104 ) ;
#184 = MANIFOLD_SOLID_BREP ( 'Corps-Déplacer/Copier1[2]', #90 ) ;
#185 = APPROVAL_STATUS ( 'not_yet_approved' ) ;
#186 = CALENDAR_DATE ( 2021, 26, 11 ) ;
#187 = ADVANCED_FACE ( 'NONE', ( #177, #45 ), #53, .T. ) ;
#188 = DIRECTION ( 'NONE',  ( -3.491481338843133355E-15, 1.049697256412017316E-16, -1.000000000000000000 ) ) ;
#189 = DIRECTION ( 'NONE',  ( 1.980268844365491636E-30, -1.000000000000000000, 5.671715390068885339E-16 ) ) ;
#190 = CC_DESIGN_PERSON_AND_ORGANIZATION_ASSIGNMENT ( #108, #126, ( #222 ) ) ;
#191 = DIRECTION ( 'NONE',  ( -3.491481338843133355E-15, 1.049697256412017316E-16, -1.000000000000000000 ) ) ;
#192 = CIRCLE ( 'NONE', #237, 1.803999999999999826 ) ;
#193 = CYLINDRICAL_SURFACE ( 'NONE', #135, 1.803999999999995607 ) ;
#194 = ORIENTED_EDGE ( 'NONE', *, *, #131, .F. ) ;
#195 = CARTESIAN_POINT ( 'NONE',  ( 2.444036937190193601E-13, 1.199999999999990186, 70.00000000000000000 ) ) ;
#196 = EDGE_LOOP ( 'NONE', ( #211 ) ) ;
#197 = DIRECTION ( 'NONE',  ( -3.491481338843133355E-15, 1.049697256412017316E-16, -1.000000000000000000 ) ) ;
#198 = PLANE ( 'NONE',  #117 ) ;
#199 = APPROVAL ( #185, 'UNSPECIFIED' ) ;
#200 = COORDINATED_UNIVERSAL_TIME_OFFSET ( 1, 0, .AHEAD. ) ;
#201 = UNCERTAINTY_MEASURE_WITH_UNIT (LENGTH_MEASURE( 1.000000000000000082E-05 ), #207, 'distance_accuracy_value', 'NONE');
#202 = COORDINATED_UNIVERSAL_TIME_OFFSET ( 1, 0, .AHEAD. ) ;
#203 = PERSON_AND_ORGANIZATION ( #227, #176 ) ;
#204 = PLANE ( 'NONE',  #138 ) ;
#205 = AXIS2_PLACEMENT_3D ( 'NONE', #76, #147, #134 ) ;
#206 = DIRECTION ( 'NONE',  ( -3.491481338843133355E-15, 1.049697256412017316E-16, -1.000000000000000000 ) ) ;
#207 =( LENGTH_UNIT ( ) NAMED_UNIT ( * ) SI_UNIT ( .MILLI., .METRE. ) );
#208 = ADVANCED_BREP_SHAPE_REPRESENTATION ( '321264', ( #18, #184, #30 ), #39 ) ;
#209 = CONICAL_SURFACE ( 'NONE', #1, 1.659662432702592616, 0.5235987755982970393 ) ;
#210 = CYLINDRICAL_SURFACE ( 'NONE', #42, 1.499999999999995337 ) ;
#211 = ORIENTED_EDGE ( 'NONE', *, *, #125, .F. ) ;
#212 = CARTESIAN_POINT ( 'NONE',  ( 3.685603619472149890E-14, 1.803999999999998716, 10.55598830922962073 ) ) ;
#213 = EDGE_LOOP ( 'NONE', ( #49 ) ) ;
#214 = DIRECTION ( 'NONE',  ( -2.028418455840216870E-30, 1.000000000000000000, -5.709490376170898494E-16 ) ) ;
#215 = APPROVAL_ROLE ( '' ) ;
#216 = PERSON_AND_ORGANIZATION ( #227, #176 ) ;
#217 = AXIS2_PLACEMENT_3D ( 'NONE', #29, #101, #85 ) ;
#218 = CIRCLE ( 'NONE', #217, 1.803999999999992720 ) ;
#219 = AXIS2_PLACEMENT_3D ( 'NONE', #44, #206, #3 ) ;
#220 = FACE_OUTER_BOUND ( 'NONE', #69, .T. ) ;
#221 = CARTESIAN_POINT ( 'NONE',  ( 3.097304225006467888E-30, 5.031396801483469810E-31, 8.871031875635708258E-16 ) ) ;
#222 = PRODUCT ( '321264', '321264', '', ( #162 ) ) ;
#223 = DIRECTION ( 'NONE',  ( -3.491481338843133355E-15, -5.671715390068885339E-16, -1.000000000000000000 ) ) ;
#224 = CARTESIAN_POINT ( 'NONE',  ( 2.433562493173664138E-13, -7.316389877191761450E-15, 69.70000000000001705 ) ) ;
#225 = EDGE_LOOP ( 'NONE', ( #156 ) ) ;
#226 = CARTESIAN_POINT ( 'NONE',  ( 3.685603619472149890E-14, 1.803999999999998716, 10.55598830922962073 ) ) ;
#227 = PERSON ( 'UNSPECIFIED', 'UNSPECIFIED', 'UNSPECIFIED', ('UNSPECIFIED'), ('UNSPECIFIED'), ('UNSPECIFIED') ) ;
#228 = ORIENTED_EDGE ( 'NONE', *, *, #110, .T. ) ;
#229 = DIRECTION ( 'NONE',  ( 0.0000000000000000000, 1.000000000000000000, 0.0000000000000000000 ) ) ;
#230 = ADVANCED_FACE ( 'NONE', ( #170, #68 ), #242, .T. ) ;
#231 = DIRECTION ( 'NONE',  ( -1.980268844365491636E-30, 1.000000000000000000, -5.671715390068885339E-16 ) ) ;
#232 = PERSON_AND_ORGANIZATION ( #227, #176 ) ;
#233 = CIRCLE ( 'NONE', #205, 1.199999999999997513 ) ;
#234 = CARTESIAN_POINT ( 'NONE',  ( 3.685603619472149259E-14, 5.987056135084485237E-15, 10.55598830922961895 ) ) ;
#235 = APPROVAL_STATUS ( 'not_yet_approved' ) ;
#236 = CALENDAR_DATE ( 2021, 26, 11 ) ;
#237 = AXIS2_PLACEMENT_3D ( 'NONE', #59, #133, #113 ) ;
#238 = DATE_AND_TIME ( #89, #63 ) ;
#239 = ADVANCED_FACE ( 'NONE', ( #137, #122 ), #193, .T. ) ;
#240 = CARTESIAN_POINT ( 'NONE',  ( 2.433562493173664138E-13, -7.316389877191761450E-15, 69.70000000000001705 ) ) ;
#241 = AXIS2_PLACEMENT_3D ( 'NONE', #234, #163, #189 ) ;
#242 = CONICAL_SURFACE ( 'NONE', #23, 1.499999999999997558, 0.7853981633974573828 ) ;
#243 = ADVANCED_FACE ( 'NONE', ( #21 ), #99, .T. ) ;
ENDSEC;
END-ISO-10303-21;
