ISO-10303-21;
HEADER;
FILE_DESCRIPTION (( 'STEP AP203' ),
    '1' );
FILE_NAME ('321263.step',
    '2021-11-26T13:01:56',
    ( '' ),
    ( '' ),
    'SwSTEP 2.0',
    'SolidWorks 2019',
    '' );
FILE_SCHEMA (( 'CONFIG_CONTROL_DESIGN' ));
ENDSEC;

DATA;
#1 = APPROVAL_STATUS ( 'not_yet_approved' ) ;
#2 = EDGE_LOOP ( 'NONE', ( #60 ) ) ;
#3 = ORGANIZATION ( 'UNSPECIFIED', 'UNSPECIFIED', '' ) ;
#4 = FACE_OUTER_BOUND ( 'NONE', #221, .T. ) ;
#5 = DIRECTION ( 'NONE',  ( 0.0000000000000000000, 1.000000000000000000, 0.0000000000000000000 ) ) ;
#6 = DIRECTION ( 'NONE',  ( 0.0000000000000000000, 1.000000000000000000, 0.0000000000000000000 ) ) ;
#7 =( GEOMETRIC_REPRESENTATION_CONTEXT ( 3 ) GLOBAL_UNCERTAINTY_ASSIGNED_CONTEXT ( ( #78 ) ) GLOBAL_UNIT_ASSIGNED_CONTEXT ( ( #49, #32, #192 ) ) REPRESENTATION_CONTEXT ( 'NONE', 'WORKASPACE' ) );
#8 = DIRECTION ( 'NONE',  ( 3.491481338843133355E-15, 5.665058282597522053E-16, 1.000000000000000000 ) ) ;
#9 = PERSON ( 'UNSPECIFIED', 'UNSPECIFIED', 'UNSPECIFIED', ('UNSPECIFIED'), ('UNSPECIFIED'), ('UNSPECIFIED') ) ;
#10 = FACE_OUTER_BOUND ( 'NONE', #56, .T. ) ;
#11 = CALENDAR_DATE ( 2021, 26, 11 ) ;
#12 = PERSON_AND_ORGANIZATION ( #9, #3 ) ;
#13 = ADVANCED_FACE ( 'NONE', ( #146, #24 ), #63, .T. ) ;
#14 = APPROVAL_PERSON_ORGANIZATION ( #241, #40, #111 ) ;
#15 = MANIFOLD_SOLID_BREP ( 'Corps-Déplacer/Copier1[2]', #198 ) ;
#16 = CIRCLE ( 'NONE', #26, 1.199999999999997513 ) ;
#17 = APPROVAL_DATE_TIME ( #228, #40 ) ;
#18 = MANIFOLD_SOLID_BREP ( 'Corps-Déplacer/Copier1[1]', #51 ) ;
#19 = ORIENTED_EDGE ( 'NONE', *, *, #234, .T. ) ;
#20 = EDGE_CURVE ( 'NONE', #110, #110, #222, .T. ) ;
#21 = DIRECTION ( 'NONE',  ( -1.977944527714797675E-30, 1.000000000000000000, -5.665058282597521067E-16 ) ) ;
#22 = CIRCLE ( 'NONE', #196, 1.499999999999992673 ) ;
#23 = ORIENTED_EDGE ( 'NONE', *, *, #88, .F. ) ;
#24 = FACE_OUTER_BOUND ( 'NONE', #158, .T. ) ;
#25 = DIRECTION ( 'NONE',  ( 3.664998382197393967E-31, 1.000000000000000000, 1.049697256412017316E-16 ) ) ;
#26 = AXIS2_PLACEMENT_3D ( 'NONE', #118, #185, #6 ) ;
#27 = DIRECTION ( 'NONE',  ( 3.664998382197393967E-31, 1.000000000000000000, 1.049697256412017316E-16 ) ) ;
#28 = APPROVAL_ROLE ( '' ) ;
#29 = APPLICATION_CONTEXT ( 'configuration controlled 3d designs of mechanical parts and assemblies' ) ;
#30 = DATE_AND_TIME ( #11, #38 ) ;
#31 = AXIS2_PLACEMENT_3D ( 'NONE', #191, #235, #89 ) ;
#32 =( NAMED_UNIT ( * ) PLANE_ANGLE_UNIT ( ) SI_UNIT ( $, .RADIAN. ) );
#33 = CARTESIAN_POINT ( 'NONE',  ( 2.433562493173664138E-13, 1.499999999999990230, 69.70000000000001705 ) ) ;
#34 = APPROVAL_PERSON_ORGANIZATION ( #57, #160, #209 ) ;
#35 = PERSON_AND_ORGANIZATION ( #9, #3 ) ;
#36 = EDGE_LOOP ( 'NONE', ( #55 ) ) ;
#37 = ORIENTED_EDGE ( 'NONE', *, *, #84, .F. ) ;
#38 = LOCAL_TIME ( 14, 1, 56.00000000000000000, #188 ) ;
#39 = COORDINATED_UNIVERSAL_TIME_OFFSET ( 1, 0, .AHEAD. ) ;
#40 = APPROVAL ( #137, 'UNSPECIFIED' ) ;
#41 = DIRECTION ( 'NONE',  ( 0.0000000000000000000, 1.000000000000000000, 0.0000000000000000000 ) ) ;
#42 = CONICAL_SURFACE ( 'NONE', #116, 1.798999999999999710, 0.5235987755982935976 ) ;
#43 = EDGE_LOOP ( 'NONE', ( #179 ) ) ;
#44 = DIRECTION ( 'NONE',  ( -1.927000500220693267E-30, 1.000000000000000000, -5.725358887499889376E-16 ) ) ;
#45 = ORIENTED_EDGE ( 'NONE', *, *, #20, .F. ) ;
#46 = AXIS2_PLACEMENT_3D ( 'NONE', #223, #238, #149 ) ;
#47 = CARTESIAN_POINT ( 'NONE',  ( -1.731052043308832133E-30, 1.654662432702592501, -4.957930102763768920E-16 ) ) ;
#48 = FACE_BOUND ( 'NONE', #203, .T. ) ;
#49 =( LENGTH_UNIT ( ) NAMED_UNIT ( * ) SI_UNIT ( .MILLI., .METRE. ) );
#50 = DIRECTION ( 'NONE',  ( 1.977944527714797325E-30, -1.000000000000000000, 5.665058282597521067E-16 ) ) ;
#51 = CLOSED_SHELL ( 'NONE', ( #201, #216, #112, #153, #62 ) ) ;
#52 = DIRECTION ( 'NONE',  ( 0.0000000000000000000, 1.000000000000000000, 0.0000000000000000000 ) ) ;
#53 = FACE_OUTER_BOUND ( 'NONE', #2, .T. ) ;
#54 = PRODUCT_RELATED_PRODUCT_CATEGORY ( 'detail', '', ( #211 ) ) ;
#55 = ORIENTED_EDGE ( 'NONE', *, *, #227, .T. ) ;
#56 = EDGE_LOOP ( 'NONE', ( #23 ) ) ;
#57 = PERSON_AND_ORGANIZATION ( #9, #3 ) ;
#58 = APPROVAL ( #171, 'UNSPECIFIED' ) ;
#59 = AXIS2_PLACEMENT_3D ( 'NONE', #217, #161, #229 ) ;
#60 = ORIENTED_EDGE ( 'NONE', *, *, #234, .F. ) ;
#61 = PLANE ( 'NONE',  #100 ) ;
#62 = ADVANCED_FACE ( 'NONE', ( #67 ), #214, .T. ) ;
#63 = CYLINDRICAL_SURFACE ( 'NONE', #104, 1.798999999999995492 ) ;
#64 = DIRECTION ( 'NONE',  ( 0.0000000000000000000, 1.000000000000000000, 0.0000000000000000000 ) ) ;
#65 = ADVANCED_BREP_SHAPE_REPRESENTATION ( '321263', ( #18, #15, #124 ), #7 ) ;
#66 = DIRECTION ( 'NONE',  ( -3.491481338843133355E-15, 1.049697256412017316E-16, -1.000000000000000000 ) ) ;
#67 = FACE_OUTER_BOUND ( 'NONE', #101, .T. ) ;
#68 = CC_DESIGN_APPROVAL ( #160, ( #86 ) ) ;
#69 = VERTEX_POINT ( 'NONE', #33 ) ;
#70 = VERTEX_POINT ( 'NONE', #72 ) ;
#71 = ORIENTED_EDGE ( 'NONE', *, *, #88, .T. ) ;
#72 = CARTESIAN_POINT ( 'NONE',  ( 3.869445280877825814E-14, 1.499999999999991562, 11.08253175473057794 ) ) ;
#73 = CALENDAR_DATE ( 2021, 26, 11 ) ;
#74 = CALENDAR_DATE ( 2021, 26, 11 ) ;
#75 = CC_DESIGN_DATE_AND_TIME_ASSIGNMENT ( #180, #243, ( #86 ) ) ;
#76 = LOCAL_TIME ( 14, 1, 56.00000000000000000, #210 ) ;
#77 = PLANE ( 'NONE',  #59 ) ;
#78 = UNCERTAINTY_MEASURE_WITH_UNIT (LENGTH_MEASURE( 1.000000000000000082E-05 ), #49, 'distance_accuracy_value', 'NONE');
#79 = FACE_OUTER_BOUND ( 'NONE', #90, .T. ) ;
#80 = EDGE_LOOP ( 'NONE', ( #237 ) ) ;
#81 = AXIS2_PLACEMENT_3D ( 'NONE', #47, #99, #164 ) ;
#82 = FACE_OUTER_BOUND ( 'NONE', #98, .T. ) ;
#83 = CARTESIAN_POINT ( 'NONE',  ( 3.688627331008427395E-14, -1.108968261181901849E-15, 10.56464856326746471 ) ) ;
#84 = EDGE_CURVE ( 'NONE', #109, #109, #138, .T. ) ;
#85 = APPROVAL_DATE_TIME ( #30, #58 ) ;
#86 = SECURITY_CLASSIFICATION ( '', '', #194 ) ;
#87 = DIRECTION ( 'NONE',  ( 1.000000000000000000, 0.0000000000000000000, 0.0000000000000000000 ) ) ;
#88 = EDGE_CURVE ( 'NONE', #168, #168, #173, .T. ) ;
#89 = DIRECTION ( 'NONE',  ( -3.425778667059021385E-30, 1.000000000000000000, -9.642709705263001994E-16 ) ) ;
#90 = EDGE_LOOP ( 'NONE', ( #195 ) ) ;
#91 = CARTESIAN_POINT ( 'NONE',  ( 0.0000000000000000000, 0.0000000000000000000, 0.0000000000000000000 ) ) ;
#92 = CARTESIAN_POINT ( 'NONE',  ( -1.892735826383161356E-31, 1.654662432702592501, -5.421010862427522170E-17 ) ) ;
#93 = CIRCLE ( 'NONE', #46, 1.499999999999997558 ) ;
#94 = PERSON_AND_ORGANIZATION_ROLE ( 'design_supplier' ) ;
#95 = ORIENTED_EDGE ( 'NONE', *, *, #139, .F. ) ;
#96 = PRODUCT_DEFINITION ( 'UNKNOWN', '', #176, #117 ) ;
#97 = PERSON_AND_ORGANIZATION_ROLE ( 'classification_officer' ) ;
#98 = EDGE_LOOP ( 'NONE', ( #95 ) ) ;
#99 = DIRECTION ( 'NONE',  ( -3.491481338843133355E-15, -5.665058282597522053E-16, -1.000000000000000000 ) ) ;
#100 = AXIS2_PLACEMENT_3D ( 'NONE', #103, #8, #233 ) ;
#101 = EDGE_LOOP ( 'NONE', ( #71 ) ) ;
#102 = DIRECTION ( 'NONE',  ( -3.491481338843133355E-15, 1.049697256412017316E-16, -1.000000000000000000 ) ) ;
#103 = CARTESIAN_POINT ( 'NONE',  ( 3.688627331008426764E-14, 5.984934984607035149E-15, 10.56464856326746293 ) ) ;
#104 = AXIS2_PLACEMENT_3D ( 'NONE', #183, #184, #202 ) ;
#105 = CC_DESIGN_PERSON_AND_ORGANIZATION_ASSIGNMENT ( #206, #148, ( #211 ) ) ;
#106 = FACE_BOUND ( 'NONE', #175, .T. ) ;
#107 = VERTEX_POINT ( 'NONE', #127 ) ;
#108 = MECHANICAL_CONTEXT ( 'NONE', #29, 'mechanical' ) ;
#109 = VERTEX_POINT ( 'NONE', #92 ) ;
#110 = VERTEX_POINT ( 'NONE', #129 ) ;
#111 = APPROVAL_ROLE ( '' ) ;
#112 = ADVANCED_FACE ( 'NONE', ( #4, #123 ), #121, .T. ) ;
#113 = AXIS2_PLACEMENT_3D ( 'NONE', #213, #232, #21 ) ;
#114 = CALENDAR_DATE ( 2021, 26, 11 ) ;
#115 = PERSON_AND_ORGANIZATION_ROLE ( 'creator' ) ;
#116 = AXIS2_PLACEMENT_3D ( 'NONE', #83, #167, #5 ) ;
#117 = DESIGN_CONTEXT ( 'detailed design', #172, 'design' ) ;
#118 = CARTESIAN_POINT ( 'NONE',  ( 2.444036937190193601E-13, -7.347880794884121511E-15, 70.00000000000000000 ) ) ;
#119 = AXIS2_PLACEMENT_3D ( 'NONE', #230, #236, #50 ) ;
#120 = CARTESIAN_POINT ( 'NONE',  ( 3.688627331008427395E-14, -1.108968261181901849E-15, 10.56464856326746471 ) ) ;
#121 = CYLINDRICAL_SURFACE ( 'NONE', #128, 1.499999999999995337 ) ;
#122 = CC_DESIGN_PERSON_AND_ORGANIZATION_ASSIGNMENT ( #134, #94, ( #176 ) ) ;
#123 = FACE_OUTER_BOUND ( 'NONE', #80, .T. ) ;
#124 = AXIS2_PLACEMENT_3D ( 'NONE', #91, #170, #87 ) ;
#125 = PLANE ( 'NONE',  #81 ) ;
#126 = PERSON_AND_ORGANIZATION ( #9, #3 ) ;
#127 = CARTESIAN_POINT ( 'NONE',  ( 2.444036937190193601E-13, 1.199999999999990186, 70.00000000000000000 ) ) ;
#128 = AXIS2_PLACEMENT_3D ( 'NONE', #204, #66, #25 ) ;
#129 = CARTESIAN_POINT ( 'NONE',  ( 8.728703347107833388E-16, 1.798999999999998822, 0.2499999999999999445 ) ) ;
#130 = APPLICATION_PROTOCOL_DEFINITION ( 'international standard', 'config_control_design', 1994, #29 ) ;
#131 = PRODUCT_DEFINITION_SHAPE ( 'NONE', 'NONE',  #96 ) ;
#132 = CC_DESIGN_PERSON_AND_ORGANIZATION_ASSIGNMENT ( #12, #169, ( #96 ) ) ;
#133 = PERSON_AND_ORGANIZATION ( #9, #3 ) ;
#134 = PERSON_AND_ORGANIZATION ( #9, #3 ) ;
#135 = CONICAL_SURFACE ( 'NONE', #119, 1.654662432702592501, 0.5235987755982970393 ) ;
#136 = EDGE_LOOP ( 'NONE', ( #37 ) ) ;
#137 = APPROVAL_STATUS ( 'not_yet_approved' ) ;
#138 = CIRCLE ( 'NONE', #113, 1.654662432702592501 ) ;
#139 = EDGE_CURVE ( 'NONE', #107, #107, #16, .T. ) ;
#140 = DIRECTION ( 'NONE',  ( -3.491481338843133355E-15, 1.049697256412017316E-16, -1.000000000000000000 ) ) ;
#141 = ORIENTED_EDGE ( 'NONE', *, *, #163, .T. ) ;
#142 = LOCAL_TIME ( 14, 1, 56.00000000000000000, #155 ) ;
#143 = FACE_OUTER_BOUND ( 'NONE', #182, .T. ) ;
#144 = ADVANCED_FACE ( 'NONE', ( #200 ), #125, .T. ) ;
#145 = DIRECTION ( 'NONE',  ( -3.491481338843133355E-15, 1.049697256412017316E-16, -1.000000000000000000 ) ) ;
#146 = FACE_OUTER_BOUND ( 'NONE', #36, .T. ) ;
#147 = LOCAL_TIME ( 14, 1, 56.00000000000000000, #197 ) ;
#148 = PERSON_AND_ORGANIZATION_ROLE ( 'design_owner' ) ;
#149 = DIRECTION ( 'NONE',  ( 0.0000000000000000000, 1.000000000000000000, 0.0000000000000000000 ) ) ;
#150 = CARTESIAN_POINT ( 'NONE',  ( 2.433562493173664138E-13, -7.316389877191761450E-15, 69.70000000000001705 ) ) ;
#151 = APPROVAL_PERSON_ORGANIZATION ( #126, #58, #28 ) ;
#152 = CARTESIAN_POINT ( 'NONE',  ( 3.688627331008427395E-14, 1.798999999999998822, 10.56464856326746471 ) ) ;
#153 = ADVANCED_FACE ( 'NONE', ( #106, #10 ), #42, .T. ) ;
#154 = CONICAL_SURFACE ( 'NONE', #165, 1.499999999999997558, 0.7853981633974573828 ) ;
#155 = COORDINATED_UNIVERSAL_TIME_OFFSET ( 1, 0, .AHEAD. ) ;
#156 = DATE_AND_TIME ( #226, #142 ) ;
#157 = DATE_AND_TIME ( #114, #76 ) ;
#158 = EDGE_LOOP ( 'NONE', ( #45 ) ) ;
#159 = LOCAL_TIME ( 14, 1, 56.00000000000000000, #39 ) ;
#160 = APPROVAL ( #1, 'UNSPECIFIED' ) ;
#161 = DIRECTION ( 'NONE',  ( 3.491481338843133355E-15, -1.049697256412017316E-16, 1.000000000000000000 ) ) ;
#162 = FACE_BOUND ( 'NONE', #136, .T. ) ;
#163 = EDGE_CURVE ( 'NONE', #70, #70, #22, .T. ) ;
#164 = DIRECTION ( 'NONE',  ( -1.977944527714797675E-30, 1.000000000000000000, -5.665058282597522053E-16 ) ) ;
#165 = AXIS2_PLACEMENT_3D ( 'NONE', #150, #224, #52 ) ;
#166 = CARTESIAN_POINT ( 'NONE',  ( 3.688627331008426764E-14, 1.798999999999998822, 10.56464856326746293 ) ) ;
#167 = DIRECTION ( 'NONE',  ( -3.491481338843133355E-15, 1.049697256412017316E-16, -1.000000000000000000 ) ) ;
#168 = VERTEX_POINT ( 'NONE', #174 ) ;
#169 = PERSON_AND_ORGANIZATION_ROLE ( 'creator' ) ;
#170 = DIRECTION ( 'NONE',  ( 0.0000000000000000000, 0.0000000000000000000, 1.000000000000000000 ) ) ;
#171 = APPROVAL_STATUS ( 'not_yet_approved' ) ;
#172 = APPLICATION_CONTEXT ( 'configuration controlled 3d designs of mechanical parts and assemblies' ) ;
#173 = CIRCLE ( 'NONE', #239, 1.798999999999999710 ) ;
#174 = CARTESIAN_POINT ( 'NONE',  ( 3.688627331008427395E-14, 1.798999999999998822, 10.56464856326746471 ) ) ;
#175 = EDGE_LOOP ( 'NONE', ( #141 ) ) ;
#176 = PRODUCT_DEFINITION_FORMATION_WITH_SPECIFIED_SOURCE ( 'ANY', '', #211, .NOT_KNOWN. ) ;
#177 = DATE_TIME_ROLE ( 'creation_date' ) ;
#178 = AXIS2_PLACEMENT_3D ( 'NONE', #166, #140, #27 ) ;
#179 = ORIENTED_EDGE ( 'NONE', *, *, #84, .T. ) ;
#180 = DATE_AND_TIME ( #74, #147 ) ;
#181 = CC_DESIGN_DATE_AND_TIME_ASSIGNMENT ( #157, #177, ( #96 ) ) ;
#182 = EDGE_LOOP ( 'NONE', ( #199 ) ) ;
#183 = CARTESIAN_POINT ( 'NONE',  ( 0.0000000000000000000, 0.0000000000000000000, 0.0000000000000000000 ) ) ;
#184 = DIRECTION ( 'NONE',  ( -3.491481338843133355E-15, -5.665058282597522053E-16, -1.000000000000000000 ) ) ;
#185 = DIRECTION ( 'NONE',  ( -3.491481338843133355E-15, 1.049697256412017316E-16, -1.000000000000000000 ) ) ;
#186 = CARTESIAN_POINT ( 'NONE',  ( 3.869445280877825814E-14, -1.163330317703974832E-15, 11.08253175473057794 ) ) ;
#187 = CC_DESIGN_APPROVAL ( #58, ( #96 ) ) ;
#188 = COORDINATED_UNIVERSAL_TIME_OFFSET ( 1, 0, .AHEAD. ) ;
#189 = CC_DESIGN_SECURITY_CLASSIFICATION ( #86, ( #176 ) ) ;
#190 = ADVANCED_FACE ( 'NONE', ( #143 ), #61, .T. ) ;
#191 = CARTESIAN_POINT ( 'NONE',  ( 3.688627331008428026E-14, 5.984934984607037515E-15, 10.56464856326746649 ) ) ;
#192 =( NAMED_UNIT ( * ) SI_UNIT ( $, .STERADIAN. ) SOLID_ANGLE_UNIT ( ) );
#193 = APPROVAL_DATE_TIME ( #156, #160 ) ;
#194 = SECURITY_CLASSIFICATION_LEVEL ( 'unclassified' ) ;
#195 = ORIENTED_EDGE ( 'NONE', *, *, #20, .T. ) ;
#196 = AXIS2_PLACEMENT_3D ( 'NONE', #186, #145, #64 ) ;
#197 = COORDINATED_UNIVERSAL_TIME_OFFSET ( 1, 0, .AHEAD. ) ;
#198 = CLOSED_SHELL ( 'NONE', ( #190, #13, #205, #144 ) ) ;
#199 = ORIENTED_EDGE ( 'NONE', *, *, #227, .F. ) ;
#200 = FACE_OUTER_BOUND ( 'NONE', #43, .T. ) ;
#201 = ADVANCED_FACE ( 'NONE', ( #82 ), #77, .T. ) ;
#202 = DIRECTION ( 'NONE',  ( -1.977944527714797675E-30, 1.000000000000000000, -5.665058282597521067E-16 ) ) ;
#203 = EDGE_LOOP ( 'NONE', ( #215 ) ) ;
#204 = CARTESIAN_POINT ( 'NONE',  ( 0.0000000000000000000, 0.0000000000000000000, 0.0000000000000000000 ) ) ;
#205 = ADVANCED_FACE ( 'NONE', ( #79, #162 ), #135, .T. ) ;
#206 = PERSON_AND_ORGANIZATION ( #9, #3 ) ;
#207 = AXIS2_PLACEMENT_3D ( 'NONE', #212, #231, #44 ) ;
#208 = VERTEX_POINT ( 'NONE', #152 ) ;
#209 = APPROVAL_ROLE ( '' ) ;
#210 = COORDINATED_UNIVERSAL_TIME_OFFSET ( 1, 0, .AHEAD. ) ;
#211 = PRODUCT ( '321263', '321263', '', ( #108 ) ) ;
#212 = CARTESIAN_POINT ( 'NONE',  ( 8.728703347107867901E-16, 1.416264570649386183E-16, 0.2500000000000009992 ) ) ;
#213 = CARTESIAN_POINT ( 'NONE',  ( 3.083556921341031689E-30, 5.003185748915371400E-31, 8.831658033042034393E-16 ) ) ;
#214 = PLANE ( 'NONE',  #178 ) ;
#215 = ORIENTED_EDGE ( 'NONE', *, *, #139, .T. ) ;
#216 = ADVANCED_FACE ( 'NONE', ( #48, #53 ), #154, .T. ) ;
#217 = CARTESIAN_POINT ( 'NONE',  ( 2.444036937190193601E-13, -7.347880794884121511E-15, 70.00000000000000000 ) ) ;
#218 = CC_DESIGN_APPROVAL ( #40, ( #176 ) ) ;
#219 = APPLICATION_PROTOCOL_DEFINITION ( 'international standard', 'config_control_design', 1994, #172 ) ;
#220 = CIRCLE ( 'NONE', #31, 1.798999999999992605 ) ;
#221 = EDGE_LOOP ( 'NONE', ( #19 ) ) ;
#222 = CIRCLE ( 'NONE', #207, 1.798999999999998600 ) ;
#223 = CARTESIAN_POINT ( 'NONE',  ( 2.433562493173664138E-13, -7.316389877191761450E-15, 69.70000000000001705 ) ) ;
#224 = DIRECTION ( 'NONE',  ( -3.491481338843133355E-15, 1.049697256412017316E-16, -1.000000000000000000 ) ) ;
#225 = SHAPE_DEFINITION_REPRESENTATION ( #131, #65 ) ;
#226 = CALENDAR_DATE ( 2021, 26, 11 ) ;
#227 = EDGE_CURVE ( 'NONE', #208, #208, #220, .T. ) ;
#228 = DATE_AND_TIME ( #73, #159 ) ;
#229 = DIRECTION ( 'NONE',  ( -3.664998382197393967E-31, -1.000000000000000000, -1.049697256412017316E-16 ) ) ;
#230 = CARTESIAN_POINT ( 'NONE',  ( 3.083556921341031689E-30, 5.003185748915371400E-31, 8.831658033042034393E-16 ) ) ;
#231 = DIRECTION ( 'NONE',  ( -3.491481338843133355E-15, -5.665058282597522053E-16, -1.000000000000000000 ) ) ;
#232 = DIRECTION ( 'NONE',  ( -3.491481338843133355E-15, -5.665058282597522053E-16, -1.000000000000000000 ) ) ;
#233 = DIRECTION ( 'NONE',  ( 1.977944527714797675E-30, -1.000000000000000000, 5.665058282597522053E-16 ) ) ;
#234 = EDGE_CURVE ( 'NONE', #69, #69, #93, .T. ) ;
#235 = DIRECTION ( 'NONE',  ( -3.491481338843133355E-15, -5.665058282597522053E-16, -1.000000000000000000 ) ) ;
#236 = DIRECTION ( 'NONE',  ( 3.491481338843133355E-15, 5.665058282597522053E-16, 1.000000000000000000 ) ) ;
#237 = ORIENTED_EDGE ( 'NONE', *, *, #163, .F. ) ;
#238 = DIRECTION ( 'NONE',  ( -3.491481338843133355E-15, 1.049697256412017316E-16, -1.000000000000000000 ) ) ;
#239 = AXIS2_PLACEMENT_3D ( 'NONE', #120, #102, #41 ) ;
#240 = CC_DESIGN_PERSON_AND_ORGANIZATION_ASSIGNMENT ( #35, #115, ( #176 ) ) ;
#241 = PERSON_AND_ORGANIZATION ( #9, #3 ) ;
#242 = CC_DESIGN_PERSON_AND_ORGANIZATION_ASSIGNMENT ( #133, #97, ( #86 ) ) ;
#243 = DATE_TIME_ROLE ( 'classification_date' ) ;
ENDSEC;
END-ISO-10303-21;
