ISO-10303-21;
HEADER;
FILE_DESCRIPTION (( 'STEP AP203' ),
    '1' );
FILE_NAME ('321262.step',
    '2021-11-26T13:01:56',
    ( '' ),
    ( '' ),
    'SwSTEP 2.0',
    'SolidWorks 2019',
    '' );
FILE_SCHEMA (( 'CONFIG_CONTROL_DESIGN' ));
ENDSEC;

DATA;
#1 = CARTESIAN_POINT ( 'NONE',  ( -1.892735826383164860E-31, 1.649662432702592607, -5.421010862427522170E-17 ) ) ;
#2 = APPLICATION_CONTEXT ( 'configuration controlled 3d designs of mechanical parts and assemblies' ) ;
#3 = APPROVAL ( #162, 'UNSPECIFIED' ) ;
#4 = CARTESIAN_POINT ( 'NONE',  ( 2.433562493173664138E-13, 1.499999999999990230, 69.70000000000001705 ) ) ;
#5 = EDGE_LOOP ( 'NONE', ( #25 ) ) ;
#6 = APPROVAL_STATUS ( 'not_yet_approved' ) ;
#7 = ORIENTED_EDGE ( 'NONE', *, *, #114, .T. ) ;
#8 = AXIS2_PLACEMENT_3D ( 'NONE', #73, #12, #31 ) ;
#9 = ORIENTED_EDGE ( 'NONE', *, *, #241, .F. ) ;
#10 = ADVANCED_BREP_SHAPE_REPRESENTATION ( '321262', ( #224, #176, #151 ), #16 ) ;
#11 = APPROVAL_DATE_TIME ( #70, #120 ) ;
#12 = DIRECTION ( 'NONE',  ( -3.491481338843133355E-15, -5.658412080367430503E-16, -1.000000000000000000 ) ) ;
#13 = DIRECTION ( 'NONE',  ( -3.435326545172340892E-30, 1.000000000000000000, -9.669584592958829898E-16 ) ) ;
#14 = DIRECTION ( 'NONE',  ( 0.0000000000000000000, 1.000000000000000000, 0.0000000000000000000 ) ) ;
#15 = PRODUCT_RELATED_PRODUCT_CATEGORY ( 'detail', '', ( #133 ) ) ;
#16 =( GEOMETRIC_REPRESENTATION_CONTEXT ( 3 ) GLOBAL_UNCERTAINTY_ASSIGNED_CONTEXT ( ( #139 ) ) GLOBAL_UNIT_ASSIGNED_CONTEXT ( ( #153, #99, #95 ) ) REPRESENTATION_CONTEXT ( 'NONE', 'WORKASPACE' ) );
#17 = FACE_BOUND ( 'NONE', #125, .T. ) ;
#18 = AXIS2_PLACEMENT_3D ( 'NONE', #113, #240, #186 ) ;
#19 = ADVANCED_FACE ( 'NONE', ( #34, #126 ), #187, .T. ) ;
#20 = PERSON_AND_ORGANIZATION ( #117, #204 ) ;
#21 = VERTEX_POINT ( 'NONE', #59 ) ;
#22 = CC_DESIGN_DATE_AND_TIME_ASSIGNMENT ( #106, #230, ( #43 ) ) ;
#23 = SECURITY_CLASSIFICATION ( '', '', #140 ) ;
#24 = DIRECTION ( 'NONE',  ( 0.0000000000000000000, 0.0000000000000000000, 1.000000000000000000 ) ) ;
#25 = ORIENTED_EDGE ( 'NONE', *, *, #237, .T. ) ;
#26 = AXIS2_PLACEMENT_3D ( 'NONE', #96, #222, #79 ) ;
#27 = SHAPE_DEFINITION_REPRESENTATION ( #209, #10 ) ;
#28 = DATE_TIME_ROLE ( 'classification_date' ) ;
#29 = ORIENTED_EDGE ( 'NONE', *, *, #237, .F. ) ;
#30 = CONICAL_SURFACE ( 'NONE', #18, 1.649662432702592607, 0.5235987755982970393 ) ;
#31 = DIRECTION ( 'NONE',  ( -1.975624018608743494E-30, 1.000000000000000000, -5.658412080367430503E-16 ) ) ;
#32 = CARTESIAN_POINT ( 'NONE',  ( 3.691651042544705530E-14, 5.982813834129584271E-15, 10.57330881730531225 ) ) ;
#33 = FACE_OUTER_BOUND ( 'NONE', #138, .T. ) ;
#34 = FACE_BOUND ( 'NONE', #5, .T. ) ;
#35 = CIRCLE ( 'NONE', #102, 1.499999999999997558 ) ;
#36 = ADVANCED_FACE ( 'NONE', ( #130, #17 ), #30, .T. ) ;
#37 = CARTESIAN_POINT ( 'NONE',  ( 0.0000000000000000000, 0.0000000000000000000, 0.0000000000000000000 ) ) ;
#38 = CALENDAR_DATE ( 2021, 26, 11 ) ;
#39 = ORIENTED_EDGE ( 'NONE', *, *, #241, .T. ) ;
#40 = LOCAL_TIME ( 14, 1, 56.00000000000000000, #83 ) ;
#41 = MECHANICAL_CONTEXT ( 'NONE', #78, 'mechanical' ) ;
#42 = PERSON_AND_ORGANIZATION_ROLE ( 'design_owner' ) ;
#43 = PRODUCT_DEFINITION ( 'UNKNOWN', '', #181, #175 ) ;
#44 = COORDINATED_UNIVERSAL_TIME_OFFSET ( 1, 0, .AHEAD. ) ;
#45 = ORIENTED_EDGE ( 'NONE', *, *, #57, .T. ) ;
#46 = EDGE_LOOP ( 'NONE', ( #9 ) ) ;
#47 = PERSON_AND_ORGANIZATION_ROLE ( 'design_supplier' ) ;
#48 = EDGE_CURVE ( 'NONE', #208, #208, #141, .T. ) ;
#49 = DIRECTION ( 'NONE',  ( 0.0000000000000000000, 1.000000000000000000, 0.0000000000000000000 ) ) ;
#50 = FACE_OUTER_BOUND ( 'NONE', #192, .T. ) ;
#51 = PERSON_AND_ORGANIZATION ( #117, #204 ) ;
#52 = CYLINDRICAL_SURFACE ( 'NONE', #8, 1.793999999999995598 ) ;
#53 = DIRECTION ( 'NONE',  ( -1.975624018608743494E-30, 1.000000000000000000, -5.658412080367429517E-16 ) ) ;
#54 = EDGE_LOOP ( 'NONE', ( #172 ) ) ;
#55 = DIRECTION ( 'NONE',  ( 0.0000000000000000000, 1.000000000000000000, 0.0000000000000000000 ) ) ;
#56 = CIRCLE ( 'NONE', #112, 1.793999999999999817 ) ;
#57 = EDGE_CURVE ( 'NONE', #76, #76, #228, .T. ) ;
#58 = CARTESIAN_POINT ( 'NONE',  ( 3.691651042544704899E-14, 1.793999999999998707, 10.57330881730531047 ) ) ;
#59 = CARTESIAN_POINT ( 'NONE',  ( 3.691651042544704899E-14, 1.793999999999998707, 10.57330881730531047 ) ) ;
#60 = CALENDAR_DATE ( 2021, 26, 11 ) ;
#61 = CARTESIAN_POINT ( 'NONE',  ( 2.444036937190193601E-13, 1.199999999999990186, 70.00000000000000000 ) ) ;
#62 = ADVANCED_FACE ( 'NONE', ( #217, #71 ), #52, .T. ) ;
#63 = EDGE_LOOP ( 'NONE', ( #213 ) ) ;
#64 = PERSON_AND_ORGANIZATION ( #117, #204 ) ;
#65 = ADVANCED_FACE ( 'NONE', ( #50 ), #111, .T. ) ;
#66 = AXIS2_PLACEMENT_3D ( 'NONE', #220, #184, #14 ) ;
#67 = DIRECTION ( 'NONE',  ( 3.491481338843133355E-15, 5.658412080367430503E-16, 1.000000000000000000 ) ) ;
#68 = CALENDAR_DATE ( 2021, 26, 11 ) ;
#69 = DIRECTION ( 'NONE',  ( -3.491481338843133355E-15, 1.049697256412017316E-16, -1.000000000000000000 ) ) ;
#70 = DATE_AND_TIME ( #143, #40 ) ;
#71 = FACE_OUTER_BOUND ( 'NONE', #123, .T. ) ;
#72 = DIRECTION ( 'NONE',  ( -1.975624018608743494E-30, 1.000000000000000000, -5.658412080367430503E-16 ) ) ;
#73 = CARTESIAN_POINT ( 'NONE',  ( 0.0000000000000000000, 0.0000000000000000000, 0.0000000000000000000 ) ) ;
#74 = DIRECTION ( 'NONE',  ( 0.0000000000000000000, 1.000000000000000000, 0.0000000000000000000 ) ) ;
#75 = CC_DESIGN_APPROVAL ( #120, ( #23 ) ) ;
#76 = VERTEX_POINT ( 'NONE', #190 ) ;
#77 = CIRCLE ( 'NONE', #191, 1.793999999999992712 ) ;
#78 = APPLICATION_CONTEXT ( 'configuration controlled 3d designs of mechanical parts and assemblies' ) ;
#79 = DIRECTION ( 'NONE',  ( 3.664998382197393967E-31, 1.000000000000000000, 1.049697256412017316E-16 ) ) ;
#80 = ORIENTED_EDGE ( 'NONE', *, *, #48, .F. ) ;
#81 = DATE_AND_TIME ( #60, #223 ) ;
#82 = AXIS2_PLACEMENT_3D ( 'NONE', #145, #238, #49 ) ;
#83 = COORDINATED_UNIVERSAL_TIME_OFFSET ( 1, 0, .AHEAD. ) ;
#84 = CC_DESIGN_PERSON_AND_ORGANIZATION_ASSIGNMENT ( #51, #156, ( #181 ) ) ;
#85 = DATE_AND_TIME ( #68, #158 ) ;
#86 = AXIS2_PLACEMENT_3D ( 'NONE', #107, #239, #72 ) ;
#87 = APPROVAL_STATUS ( 'not_yet_approved' ) ;
#88 = DIRECTION ( 'NONE',  ( 1.975624018608743494E-30, -1.000000000000000000, 5.658412080367430503E-16 ) ) ;
#89 = PERSON_AND_ORGANIZATION ( #117, #204 ) ;
#90 = PLANE ( 'NONE',  #242 ) ;
#91 = PLANE ( 'NONE',  #86 ) ;
#92 = CLOSED_SHELL ( 'NONE', ( #201, #62, #36, #178 ) ) ;
#93 = CARTESIAN_POINT ( 'NONE',  ( 2.433562493173664138E-13, -7.316389877191761450E-15, 69.70000000000001705 ) ) ;
#94 = APPROVAL_ROLE ( '' ) ;
#95 =( NAMED_UNIT ( * ) SI_UNIT ( $, .STERADIAN. ) SOLID_ANGLE_UNIT ( ) );
#96 = CARTESIAN_POINT ( 'NONE',  ( 0.0000000000000000000, 0.0000000000000000000, 0.0000000000000000000 ) ) ;
#97 = LOCAL_TIME ( 14, 1, 56.00000000000000000, #152 ) ;
#98 = APPROVAL_PERSON_ORGANIZATION ( #20, #206, #94 ) ;
#99 =( NAMED_UNIT ( * ) PLANE_ANGLE_UNIT ( ) SI_UNIT ( $, .RADIAN. ) );
#100 = EDGE_LOOP ( 'NONE', ( #45 ) ) ;
#101 = VERTEX_POINT ( 'NONE', #166 ) ;
#102 = AXIS2_PLACEMENT_3D ( 'NONE', #93, #69, #216 ) ;
#103 = EDGE_CURVE ( 'NONE', #212, #212, #35, .T. ) ;
#104 = PERSON_AND_ORGANIZATION_ROLE ( 'classification_officer' ) ;
#105 = ORIENTED_EDGE ( 'NONE', *, *, #114, .F. ) ;
#106 = DATE_AND_TIME ( #38, #97 ) ;
#107 = CARTESIAN_POINT ( 'NONE',  ( -1.724193153641044253E-30, 1.649662432702592607, -4.938285461987712201E-16 ) ) ;
#108 = DIRECTION ( 'NONE',  ( 3.664998382197393967E-31, 1.000000000000000000, 1.049697256412017316E-16 ) ) ;
#109 = CC_DESIGN_PERSON_AND_ORGANIZATION_ASSIGNMENT ( #226, #169, ( #43 ) ) ;
#110 = DIRECTION ( 'NONE',  ( -3.491481338843133355E-15, -5.658412080367430503E-16, -1.000000000000000000 ) ) ;
#111 = PLANE ( 'NONE',  #207 ) ;
#112 = AXIS2_PLACEMENT_3D ( 'NONE', #132, #136, #74 ) ;
#113 = CARTESIAN_POINT ( 'NONE',  ( 3.069839142005455578E-30, 4.975084555847566856E-31, 8.792368751489920955E-16 ) ) ;
#114 = EDGE_CURVE ( 'NONE', #101, #101, #225, .T. ) ;
#115 = AXIS2_PLACEMENT_3D ( 'NONE', #129, #180, #53 ) ;
#116 = PERSON_AND_ORGANIZATION ( #117, #204 ) ;
#117 = PERSON ( 'UNSPECIFIED', 'UNSPECIFIED', 'UNSPECIFIED', ('UNSPECIFIED'), ('UNSPECIFIED'), ('UNSPECIFIED') ) ;
#118 = FACE_OUTER_BOUND ( 'NONE', #227, .T. ) ;
#119 = APPROVAL_PERSON_ORGANIZATION ( #179, #120, #122 ) ;
#120 = APPROVAL ( #87, 'UNSPECIFIED' ) ;
#121 = CARTESIAN_POINT ( 'NONE',  ( 2.444036937190193601E-13, -7.347880794884121511E-15, 70.00000000000000000 ) ) ;
#122 = APPROVAL_ROLE ( '' ) ;
#123 = EDGE_LOOP ( 'NONE', ( #105 ) ) ;
#124 = PERSON_AND_ORGANIZATION ( #117, #204 ) ;
#125 = EDGE_LOOP ( 'NONE', ( #80 ) ) ;
#126 = FACE_OUTER_BOUND ( 'NONE', #177, .T. ) ;
#127 = EDGE_LOOP ( 'NONE', ( #202 ) ) ;
#128 = DIRECTION ( 'NONE',  ( -3.491481338843133355E-15, 1.049697256412017316E-16, -1.000000000000000000 ) ) ;
#129 = CARTESIAN_POINT ( 'NONE',  ( 3.069839142005455578E-30, 4.975084555847566856E-31, 8.792368751489920955E-16 ) ) ;
#130 = FACE_OUTER_BOUND ( 'NONE', #173, .T. ) ;
#131 = CC_DESIGN_APPROVAL ( #3, ( #181 ) ) ;
#132 = CARTESIAN_POINT ( 'NONE',  ( 3.691651042544704899E-14, -1.109877325672237573E-15, 10.57330881730531047 ) ) ;
#133 = PRODUCT ( '321262', '321262', '', ( #41 ) ) ;
#134 = CIRCLE ( 'NONE', #185, 1.199999999999997513 ) ;
#135 = CC_DESIGN_PERSON_AND_ORGANIZATION_ASSIGNMENT ( #64, #47, ( #181 ) ) ;
#136 = DIRECTION ( 'NONE',  ( -3.491481338843133355E-15, 1.049697256412017316E-16, -1.000000000000000000 ) ) ;
#137 = APPLICATION_PROTOCOL_DEFINITION ( 'international standard', 'config_control_design', 1994, #78 ) ;
#138 = EDGE_LOOP ( 'NONE', ( #29 ) ) ;
#139 = UNCERTAINTY_MEASURE_WITH_UNIT (LENGTH_MEASURE( 1.000000000000000082E-05 ), #153, 'distance_accuracy_value', 'NONE');
#140 = SECURITY_CLASSIFICATION_LEVEL ( 'unclassified' ) ;
#141 = CIRCLE ( 'NONE', #115, 1.649662432702592607 ) ;
#142 = ORIENTED_EDGE ( 'NONE', *, *, #57, .F. ) ;
#143 = CALENDAR_DATE ( 2021, 26, 11 ) ;
#144 = EDGE_LOOP ( 'NONE', ( #196 ) ) ;
#145 = CARTESIAN_POINT ( 'NONE',  ( 2.433562493173664138E-13, -7.316389877191761450E-15, 69.70000000000001705 ) ) ;
#146 = FACE_BOUND ( 'NONE', #100, .T. ) ;
#147 = ADVANCED_FACE ( 'NONE', ( #33 ), #90, .T. ) ;
#148 = FACE_OUTER_BOUND ( 'NONE', #46, .T. ) ;
#149 = EDGE_CURVE ( 'NONE', #171, #171, #77, .T. ) ;
#150 = APPROVAL_DATE_TIME ( #81, #206 ) ;
#151 = AXIS2_PLACEMENT_3D ( 'NONE', #37, #24, #193 ) ;
#152 = COORDINATED_UNIVERSAL_TIME_OFFSET ( 1, 0, .AHEAD. ) ;
#153 =( LENGTH_UNIT ( ) NAMED_UNIT ( * ) SI_UNIT ( .MILLI., .METRE. ) );
#154 = VERTEX_POINT ( 'NONE', #61 ) ;
#155 = AXIS2_PLACEMENT_3D ( 'NONE', #218, #128, #198 ) ;
#156 = PERSON_AND_ORGANIZATION_ROLE ( 'creator' ) ;
#157 = CARTESIAN_POINT ( 'NONE',  ( 2.444036937190193601E-13, -7.347880794884121511E-15, 70.00000000000000000 ) ) ;
#158 = LOCAL_TIME ( 14, 1, 56.00000000000000000, #214 ) ;
#159 = CC_DESIGN_DATE_AND_TIME_ASSIGNMENT ( #85, #28, ( #23 ) ) ;
#160 = CALENDAR_DATE ( 2021, 26, 11 ) ;
#161 = DIRECTION ( 'NONE',  ( -1.932371181659435446E-30, 1.000000000000000000, -5.741315852069287010E-16 ) ) ;
#162 = APPROVAL_STATUS ( 'not_yet_approved' ) ;
#163 = FACE_OUTER_BOUND ( 'NONE', #144, .T. ) ;
#164 = CARTESIAN_POINT ( 'NONE',  ( 8.728703347107867901E-16, 1.414603020091863296E-16, 0.2500000000000009992 ) ) ;
#165 = DIRECTION ( 'NONE',  ( -3.491481338843133355E-15, 1.049697256412017316E-16, -1.000000000000000000 ) ) ;
#166 = CARTESIAN_POINT ( 'NONE',  ( 8.728703347107833388E-16, 1.793999999999998707, 0.2499999999999999445 ) ) ;
#167 = APPROVAL_PERSON_ORGANIZATION ( #89, #3, #234 ) ;
#168 = CYLINDRICAL_SURFACE ( 'NONE', #26, 1.499999999999995337 ) ;
#169 = PERSON_AND_ORGANIZATION_ROLE ( 'creator' ) ;
#170 = AXIS2_PLACEMENT_3D ( 'NONE', #164, #182, #161 ) ;
#171 = VERTEX_POINT ( 'NONE', #58 ) ;
#172 = ORIENTED_EDGE ( 'NONE', *, *, #149, .F. ) ;
#173 = EDGE_LOOP ( 'NONE', ( #7 ) ) ;
#174 = AXIS2_PLACEMENT_3D ( 'NONE', #233, #67, #88 ) ;
#175 = DESIGN_CONTEXT ( 'detailed design', #2, 'design' ) ;
#176 = MANIFOLD_SOLID_BREP ( 'Corps-Déplacer/Copier1[2]', #92 ) ;
#177 = EDGE_LOOP ( 'NONE', ( #229 ) ) ;
#178 = ADVANCED_FACE ( 'NONE', ( #163 ), #91, .T. ) ;
#179 = PERSON_AND_ORGANIZATION ( #117, #204 ) ;
#180 = DIRECTION ( 'NONE',  ( -3.491481338843133355E-15, -5.658412080367430503E-16, -1.000000000000000000 ) ) ;
#181 = PRODUCT_DEFINITION_FORMATION_WITH_SPECIFIED_SOURCE ( 'ANY', '', #133, .NOT_KNOWN. ) ;
#182 = DIRECTION ( 'NONE',  ( -3.491481338843133355E-15, -5.658412080367430503E-16, -1.000000000000000000 ) ) ;
#183 = CARTESIAN_POINT ( 'NONE',  ( 3.691651042544704899E-14, 1.793999999999998707, 10.57330881730531047 ) ) ;
#184 = DIRECTION ( 'NONE',  ( -3.491481338843133355E-15, 1.049697256412017316E-16, -1.000000000000000000 ) ) ;
#185 = AXIS2_PLACEMENT_3D ( 'NONE', #121, #210, #55 ) ;
#186 = DIRECTION ( 'NONE',  ( 1.975624018608743144E-30, -1.000000000000000000, 5.658412080367429517E-16 ) ) ;
#187 = CONICAL_SURFACE ( 'NONE', #82, 1.499999999999997558, 0.7853981633974573828 ) ;
#188 = ADVANCED_FACE ( 'NONE', ( #146, #148 ), #199, .T. ) ;
#189 = APPLICATION_PROTOCOL_DEFINITION ( 'international standard', 'config_control_design', 1994, #2 ) ;
#190 = CARTESIAN_POINT ( 'NONE',  ( 3.869445280877825814E-14, 1.499999999999991562, 11.08253175473057794 ) ) ;
#191 = AXIS2_PLACEMENT_3D ( 'NONE', #32, #110, #13 ) ;
#192 = EDGE_LOOP ( 'NONE', ( #39 ) ) ;
#193 = DIRECTION ( 'NONE',  ( 1.000000000000000000, 0.0000000000000000000, 0.0000000000000000000 ) ) ;
#194 = APPROVAL_DATE_TIME ( #236, #3 ) ;
#195 = CC_DESIGN_PERSON_AND_ORGANIZATION_ASSIGNMENT ( #116, #42, ( #133 ) ) ;
#196 = ORIENTED_EDGE ( 'NONE', *, *, #48, .T. ) ;
#197 = DIRECTION ( 'NONE',  ( 3.491481338843133355E-15, -1.049697256412017316E-16, 1.000000000000000000 ) ) ;
#198 = DIRECTION ( 'NONE',  ( 0.0000000000000000000, 1.000000000000000000, 0.0000000000000000000 ) ) ;
#199 = CONICAL_SURFACE ( 'NONE', #66, 1.793999999999999817, 0.5235987755982942637 ) ;
#200 = DIRECTION ( 'NONE',  ( -3.664998382197393967E-31, -1.000000000000000000, -1.049697256412017316E-16 ) ) ;
#201 = ADVANCED_FACE ( 'NONE', ( #221 ), #203, .T. ) ;
#202 = ORIENTED_EDGE ( 'NONE', *, *, #103, .T. ) ;
#203 = PLANE ( 'NONE',  #174 ) ;
#204 = ORGANIZATION ( 'UNSPECIFIED', 'UNSPECIFIED', '' ) ;
#205 = CC_DESIGN_PERSON_AND_ORGANIZATION_ASSIGNMENT ( #124, #104, ( #23 ) ) ;
#206 = APPROVAL ( #6, 'UNSPECIFIED' ) ;
#207 = AXIS2_PLACEMENT_3D ( 'NONE', #183, #165, #108 ) ;
#208 = VERTEX_POINT ( 'NONE', #1 ) ;
#209 = PRODUCT_DEFINITION_SHAPE ( 'NONE', 'NONE',  #43 ) ;
#210 = DIRECTION ( 'NONE',  ( -3.491481338843133355E-15, 1.049697256412017316E-16, -1.000000000000000000 ) ) ;
#211 = CC_DESIGN_SECURITY_CLASSIFICATION ( #23, ( #181 ) ) ;
#212 = VERTEX_POINT ( 'NONE', #4 ) ;
#213 = ORIENTED_EDGE ( 'NONE', *, *, #149, .T. ) ;
#214 = COORDINATED_UNIVERSAL_TIME_OFFSET ( 1, 0, .AHEAD. ) ;
#215 = CLOSED_SHELL ( 'NONE', ( #147, #19, #219, #188, #65 ) ) ;
#216 = DIRECTION ( 'NONE',  ( 0.0000000000000000000, 1.000000000000000000, 0.0000000000000000000 ) ) ;
#217 = FACE_OUTER_BOUND ( 'NONE', #63, .T. ) ;
#218 = CARTESIAN_POINT ( 'NONE',  ( 3.869445280877825814E-14, -1.163330317703974832E-15, 11.08253175473057794 ) ) ;
#219 = ADVANCED_FACE ( 'NONE', ( #235, #118 ), #168, .T. ) ;
#220 = CARTESIAN_POINT ( 'NONE',  ( 3.691651042544704899E-14, -1.109877325672237573E-15, 10.57330881730531047 ) ) ;
#221 = FACE_OUTER_BOUND ( 'NONE', #54, .T. ) ;
#222 = DIRECTION ( 'NONE',  ( -3.491481338843133355E-15, 1.049697256412017316E-16, -1.000000000000000000 ) ) ;
#223 = LOCAL_TIME ( 14, 1, 56.00000000000000000, #243 ) ;
#224 = MANIFOLD_SOLID_BREP ( 'Corps-Déplacer/Copier1[1]', #215 ) ;
#225 = CIRCLE ( 'NONE', #170, 1.793999999999998485 ) ;
#226 = PERSON_AND_ORGANIZATION ( #117, #204 ) ;
#227 = EDGE_LOOP ( 'NONE', ( #142 ) ) ;
#228 = CIRCLE ( 'NONE', #155, 1.499999999999992673 ) ;
#229 = ORIENTED_EDGE ( 'NONE', *, *, #103, .F. ) ;
#230 = DATE_TIME_ROLE ( 'creation_date' ) ;
#231 = LOCAL_TIME ( 14, 1, 56.00000000000000000, #44 ) ;
#232 = CC_DESIGN_APPROVAL ( #206, ( #43 ) ) ;
#233 = CARTESIAN_POINT ( 'NONE',  ( 3.691651042544704899E-14, 5.982813834129583483E-15, 10.57330881730531047 ) ) ;
#234 = APPROVAL_ROLE ( '' ) ;
#235 = FACE_OUTER_BOUND ( 'NONE', #127, .T. ) ;
#236 = DATE_AND_TIME ( #160, #231 ) ;
#237 = EDGE_CURVE ( 'NONE', #154, #154, #134, .T. ) ;
#238 = DIRECTION ( 'NONE',  ( -3.491481338843133355E-15, 1.049697256412017316E-16, -1.000000000000000000 ) ) ;
#239 = DIRECTION ( 'NONE',  ( -3.491481338843133355E-15, -5.658412080367430503E-16, -1.000000000000000000 ) ) ;
#240 = DIRECTION ( 'NONE',  ( 3.491481338843133355E-15, 5.658412080367430503E-16, 1.000000000000000000 ) ) ;
#241 = EDGE_CURVE ( 'NONE', #21, #21, #56, .T. ) ;
#242 = AXIS2_PLACEMENT_3D ( 'NONE', #157, #197, #200 ) ;
#243 = COORDINATED_UNIVERSAL_TIME_OFFSET ( 1, 0, .AHEAD. ) ;
ENDSEC;
END-ISO-10303-21;
