ISO-10303-21;
HEADER;
FILE_DESCRIPTION (( 'STEP AP203' ),
    '1' );
FILE_NAME ('321261.step',
    '2021-11-26T13:01:55',
    ( '' ),
    ( '' ),
    'SwSTEP 2.0',
    'SolidWorks 2019',
    '' );
FILE_SCHEMA (( 'CONFIG_CONTROL_DESIGN' ));
ENDSEC;

DATA;
#1 = AXIS2_PLACEMENT_3D ( 'NONE', #14, #103, #9 ) ;
#2 = AXIS2_PLACEMENT_3D ( 'NONE', #195, #83, #234 ) ;
#3 = CALENDAR_DATE ( 2021, 26, 11 ) ;
#4 = DATE_AND_TIME ( #19, #202 ) ;
#5 = ORIENTED_EDGE ( 'NONE', *, *, #185, .T. ) ;
#6 =( GEOMETRIC_REPRESENTATION_CONTEXT ( 3 ) GLOBAL_UNCERTAINTY_ASSIGNED_CONTEXT ( ( #163 ) ) GLOBAL_UNIT_ASSIGNED_CONTEXT ( ( #223, #203, #48 ) ) REPRESENTATION_CONTEXT ( 'NONE', 'WORKASPACE' ) );
#7 = EDGE_LOOP ( 'NONE', ( #78 ) ) ;
#8 = CC_DESIGN_PERSON_AND_ORGANIZATION_ASSIGNMENT ( #110, #133, ( #125 ) ) ;
#9 = DIRECTION ( 'NONE',  ( 1.973307307699081364E-30, -1.000000000000000000, 5.651776756604163737E-16 ) ) ;
#10 = LOCAL_TIME ( 14, 1, 55.00000000000000000, #109 ) ;
#11 = CARTESIAN_POINT ( 'NONE',  ( 8.728703347107867901E-16, 1.412944189151046358E-16, 0.2500000000000009992 ) ) ;
#12 = CARTESIAN_POINT ( 'NONE',  ( 0.0000000000000000000, 0.0000000000000000000, 0.0000000000000000000 ) ) ;
#13 = DIRECTION ( 'NONE',  ( 1.973307307699080664E-30, -1.000000000000000000, 5.651776756604163737E-16 ) ) ;
#14 = CARTESIAN_POINT ( 'NONE',  ( 3.056150814511857788E-30, 4.947092784364737979E-31, 8.753163823365819934E-16 ) ) ;
#15 = VERTEX_POINT ( 'NONE', #209 ) ;
#16 = VERTEX_POINT ( 'NONE', #161 ) ;
#17 = DIRECTION ( 'NONE',  ( 0.0000000000000000000, 1.000000000000000000, 0.0000000000000000000 ) ) ;
#18 = CARTESIAN_POINT ( 'NONE',  ( 2.433562493173664138E-13, 1.499999999999990230, 69.70000000000001705 ) ) ;
#19 = CALENDAR_DATE ( 2021, 26, 11 ) ;
#20 = ORIENTED_EDGE ( 'NONE', *, *, #235, .F. ) ;
#21 = PERSON_AND_ORGANIZATION ( #233, #101 ) ;
#22 = SECURITY_CLASSIFICATION ( '', '', #130 ) ;
#23 = APPROVAL_STATUS ( 'not_yet_approved' ) ;
#24 = CC_DESIGN_PERSON_AND_ORGANIZATION_ASSIGNMENT ( #241, #68, ( #54 ) ) ;
#25 = FACE_OUTER_BOUND ( 'NONE', #191, .T. ) ;
#26 = AXIS2_PLACEMENT_3D ( 'NONE', #30, #182, #17 ) ;
#27 = FACE_OUTER_BOUND ( 'NONE', #147, .T. ) ;
#28 = CARTESIAN_POINT ( 'NONE',  ( 2.433562493173664138E-13, -7.316389877191761450E-15, 69.70000000000001705 ) ) ;
#29 = APPROVAL ( #206, 'UNSPECIFIED' ) ;
#30 = CARTESIAN_POINT ( 'NONE',  ( 3.694674754080982403E-14, -1.110786390162573099E-15, 10.58196907134315445 ) ) ;
#31 = APPROVAL_ROLE ( '' ) ;
#32 = AXIS2_PLACEMENT_3D ( 'NONE', #12, #179, #121 ) ;
#33 = VERTEX_POINT ( 'NONE', #18 ) ;
#34 = SHAPE_DEFINITION_REPRESENTATION ( #162, #84 ) ;
#35 = AXIS2_PLACEMENT_3D ( 'NONE', #196, #85, #157 ) ;
#36 = CALENDAR_DATE ( 2021, 26, 11 ) ;
#37 = EDGE_LOOP ( 'NONE', ( #118 ) ) ;
#38 = EDGE_CURVE ( 'NONE', #33, #33, #170, .T. ) ;
#39 = AXIS2_PLACEMENT_3D ( 'NONE', #11, #139, #218 ) ;
#40 = CARTESIAN_POINT ( 'NONE',  ( 2.433562493173664138E-13, -7.316389877191761450E-15, 69.70000000000001705 ) ) ;
#41 = CARTESIAN_POINT ( 'NONE',  ( 3.694674754080981772E-14, 5.980692683652138127E-15, 10.58196907134315268 ) ) ;
#42 = ADVANCED_FACE ( 'NONE', ( #25, #65 ), #106, .T. ) ;
#43 = CARTESIAN_POINT ( 'NONE',  ( 2.444036937190193601E-13, -7.347880794884121511E-15, 70.00000000000000000 ) ) ;
#44 = FACE_OUTER_BOUND ( 'NONE', #74, .T. ) ;
#45 = FACE_OUTER_BOUND ( 'NONE', #7, .T. ) ;
#46 = ADVANCED_FACE ( 'NONE', ( #197 ), #236, .T. ) ;
#47 = CIRCLE ( 'NONE', #81, 1.199999999999997513 ) ;
#48 =( NAMED_UNIT ( * ) SI_UNIT ( $, .STERADIAN. ) SOLID_ANGLE_UNIT ( ) );
#49 = PERSON_AND_ORGANIZATION ( #233, #101 ) ;
#50 = DIRECTION ( 'NONE',  ( 0.0000000000000000000, 1.000000000000000000, 0.0000000000000000000 ) ) ;
#51 = EDGE_CURVE ( 'NONE', #108, #108, #135, .T. ) ;
#52 = CONICAL_SURFACE ( 'NONE', #94, 1.788999999999999702, 0.5235987755982948189 ) ;
#53 = DIRECTION ( 'NONE',  ( 0.0000000000000000000, 0.0000000000000000000, 1.000000000000000000 ) ) ;
#54 = PRODUCT ( '321261', '321261', '', ( #183 ) ) ;
#55 = COORDINATED_UNIVERSAL_TIME_OFFSET ( 1, 0, .AHEAD. ) ;
#56 = COORDINATED_UNIVERSAL_TIME_OFFSET ( 1, 0, .AHEAD. ) ;
#57 = APPROVAL_STATUS ( 'not_yet_approved' ) ;
#58 = CC_DESIGN_PERSON_AND_ORGANIZATION_ASSIGNMENT ( #114, #98, ( #22 ) ) ;
#59 = ORIENTED_EDGE ( 'NONE', *, *, #51, .T. ) ;
#60 = AXIS2_PLACEMENT_3D ( 'NONE', #144, #123, #50 ) ;
#61 = CYLINDRICAL_SURFACE ( 'NONE', #111, 1.499999999999995337 ) ;
#62 = FACE_OUTER_BOUND ( 'NONE', #102, .T. ) ;
#63 = ORIENTED_EDGE ( 'NONE', *, *, #221, .T. ) ;
#64 = DIRECTION ( 'NONE',  ( -3.491481338843133355E-15, 1.049697256412017316E-16, -1.000000000000000000 ) ) ;
#65 = FACE_BOUND ( 'NONE', #134, .T. ) ;
#66 = CC_DESIGN_APPROVAL ( #156, ( #22 ) ) ;
#67 = CARTESIAN_POINT ( 'NONE',  ( 3.694674754080982403E-14, -1.110786390162573099E-15, 10.58196907134315445 ) ) ;
#68 = PERSON_AND_ORGANIZATION_ROLE ( 'design_owner' ) ;
#69 = ADVANCED_FACE ( 'NONE', ( #137 ), #216, .T. ) ;
#70 = PERSON_AND_ORGANIZATION_ROLE ( 'creator' ) ;
#71 = CALENDAR_DATE ( 2021, 26, 11 ) ;
#72 = LOCAL_TIME ( 14, 1, 55.00000000000000000, #55 ) ;
#73 = DATE_AND_TIME ( #36, #72 ) ;
#74 = EDGE_LOOP ( 'NONE', ( #228 ) ) ;
#75 = EDGE_LOOP ( 'NONE', ( #151 ) ) ;
#76 = APPROVAL_DATE_TIME ( #73, #227 ) ;
#77 = ORIENTED_EDGE ( 'NONE', *, *, #51, .F. ) ;
#78 = ORIENTED_EDGE ( 'NONE', *, *, #38, .F. ) ;
#79 = APPLICATION_CONTEXT ( 'configuration controlled 3d designs of mechanical parts and assemblies' ) ;
#80 = DIRECTION ( 'NONE',  ( 3.491481338843133355E-15, 5.651776756604163737E-16, 1.000000000000000000 ) ) ;
#81 = AXIS2_PLACEMENT_3D ( 'NONE', #43, #225, #165 ) ;
#82 = DIRECTION ( 'NONE',  ( -3.491481338843133355E-15, -5.651776756604163737E-16, -1.000000000000000000 ) ) ;
#83 = DIRECTION ( 'NONE',  ( -3.491481338843133355E-15, -5.651776756604163737E-16, -1.000000000000000000 ) ) ;
#84 = ADVANCED_BREP_SHAPE_REPRESENTATION ( '321261', ( #177, #180, #153 ), #6 ) ;
#85 = DIRECTION ( 'NONE',  ( -3.491481338843133355E-15, 1.049697256412017316E-16, -1.000000000000000000 ) ) ;
#86 = CLOSED_SHELL ( 'NONE', ( #176, #127, #97, #214, #69 ) ) ;
#87 = APPROVAL_PERSON_ORGANIZATION ( #187, #227, #96 ) ;
#88 = CC_DESIGN_PERSON_AND_ORGANIZATION_ASSIGNMENT ( #242, #70, ( #199 ) ) ;
#89 = CYLINDRICAL_SURFACE ( 'NONE', #32, 1.788999999999995483 ) ;
#90 = CARTESIAN_POINT ( 'NONE',  ( 0.0000000000000000000, 0.0000000000000000000, 0.0000000000000000000 ) ) ;
#91 = AXIS2_PLACEMENT_3D ( 'NONE', #200, #99, #173 ) ;
#92 = CARTESIAN_POINT ( 'NONE',  ( 2.444036937190193601E-13, 1.199999999999990186, 70.00000000000000000 ) ) ;
#93 = CARTESIAN_POINT ( 'NONE',  ( 3.869445280877825183E-14, 1.499999999999991562, 11.08253175473057617 ) ) ;
#94 = AXIS2_PLACEMENT_3D ( 'NONE', #67, #204, #186 ) ;
#95 = EDGE_LOOP ( 'NONE', ( #132 ) ) ;
#96 = APPROVAL_ROLE ( '' ) ;
#97 = ADVANCED_FACE ( 'NONE', ( #238, #27 ), #61, .T. ) ;
#98 = PERSON_AND_ORGANIZATION_ROLE ( 'classification_officer' ) ;
#99 = DIRECTION ( 'NONE',  ( 3.491481338843133355E-15, -1.049697256412017316E-16, 1.000000000000000000 ) ) ;
#100 = DIRECTION ( 'NONE',  ( -3.491481338843133355E-15, 1.049697256412017316E-16, -1.000000000000000000 ) ) ;
#101 = ORGANIZATION ( 'UNSPECIFIED', 'UNSPECIFIED', '' ) ;
#102 = EDGE_LOOP ( 'NONE', ( #59 ) ) ;
#103 = DIRECTION ( 'NONE',  ( 3.491481338843133355E-15, 5.651776756604163737E-16, 1.000000000000000000 ) ) ;
#104 = EDGE_CURVE ( 'NONE', #160, #160, #166, .T. ) ;
#105 = DIRECTION ( 'NONE',  ( -3.491481338843133355E-15, -5.651776756604163737E-16, -1.000000000000000000 ) ) ;
#106 = CONICAL_SURFACE ( 'NONE', #1, 1.644662432702592492, 0.5235987755982970393 ) ;
#107 = CIRCLE ( 'NONE', #39, 1.788999999999998591 ) ;
#108 = VERTEX_POINT ( 'NONE', #124 ) ;
#109 = COORDINATED_UNIVERSAL_TIME_OFFSET ( 1, 0, .AHEAD. ) ;
#110 = PERSON_AND_ORGANIZATION ( #233, #101 ) ;
#111 = AXIS2_PLACEMENT_3D ( 'NONE', #138, #64, #222 ) ;
#112 = DATE_TIME_ROLE ( 'creation_date' ) ;
#113 = EDGE_LOOP ( 'NONE', ( #213 ) ) ;
#114 = PERSON_AND_ORGANIZATION ( #233, #101 ) ;
#115 = AXIS2_PLACEMENT_3D ( 'NONE', #28, #231, #141 ) ;
#116 = CC_DESIGN_SECURITY_CLASSIFICATION ( #22, ( #125 ) ) ;
#117 = DIRECTION ( 'NONE',  ( 0.0000000000000000000, 1.000000000000000000, 0.0000000000000000000 ) ) ;
#118 = ORIENTED_EDGE ( 'NONE', *, *, #104, .F. ) ;
#119 = APPROVAL_PERSON_ORGANIZATION ( #212, #156, #229 ) ;
#120 = EDGE_LOOP ( 'NONE', ( #168 ) ) ;
#121 = DIRECTION ( 'NONE',  ( -1.973307307699080664E-30, 1.000000000000000000, -5.651776756604163737E-16 ) ) ;
#122 = PLANE ( 'NONE',  #2 ) ;
#123 = DIRECTION ( 'NONE',  ( -3.491481338843133355E-15, 1.049697256412017316E-16, -1.000000000000000000 ) ) ;
#124 = CARTESIAN_POINT ( 'NONE',  ( -1.892735826383158072E-31, 1.644662432702592492, -5.421010862427522170E-17 ) ) ;
#125 = PRODUCT_DEFINITION_FORMATION_WITH_SPECIFIED_SOURCE ( 'ANY', '', #54, .NOT_KNOWN. ) ;
#126 = APPLICATION_PROTOCOL_DEFINITION ( 'international standard', 'config_control_design', 1994, #194 ) ;
#127 = ADVANCED_FACE ( 'NONE', ( #232, #45 ), #237, .T. ) ;
#128 = FACE_BOUND ( 'NONE', #152, .T. ) ;
#129 = CALENDAR_DATE ( 2021, 26, 11 ) ;
#130 = SECURITY_CLASSIFICATION_LEVEL ( 'unclassified' ) ;
#131 = DATE_TIME_ROLE ( 'classification_date' ) ;
#132 = ORIENTED_EDGE ( 'NONE', *, *, #207, .T. ) ;
#133 = PERSON_AND_ORGANIZATION_ROLE ( 'design_supplier' ) ;
#134 = EDGE_LOOP ( 'NONE', ( #77 ) ) ;
#135 = CIRCLE ( 'NONE', #201, 1.644662432702592492 ) ;
#136 = CC_DESIGN_PERSON_AND_ORGANIZATION_ASSIGNMENT ( #21, #150, ( #125 ) ) ;
#137 = FACE_OUTER_BOUND ( 'NONE', #113, .T. ) ;
#138 = CARTESIAN_POINT ( 'NONE',  ( 0.0000000000000000000, 0.0000000000000000000, 0.0000000000000000000 ) ) ;
#139 = DIRECTION ( 'NONE',  ( -3.491481338843133355E-15, -5.651776756604163737E-16, -1.000000000000000000 ) ) ;
#140 = CARTESIAN_POINT ( 'NONE',  ( 3.694674754080983034E-14, 5.980692683652139705E-15, 10.58196907134315623 ) ) ;
#141 = DIRECTION ( 'NONE',  ( 0.0000000000000000000, 1.000000000000000000, 0.0000000000000000000 ) ) ;
#142 = CC_DESIGN_APPROVAL ( #227, ( #125 ) ) ;
#143 = VERTEX_POINT ( 'NONE', #92 ) ;
#144 = CARTESIAN_POINT ( 'NONE',  ( 3.869445280877825183E-14, -1.163330317703974635E-15, 11.08253175473057617 ) ) ;
#145 = VERTEX_POINT ( 'NONE', #93 ) ;
#146 = FACE_OUTER_BOUND ( 'NONE', #159, .T. ) ;
#147 = EDGE_LOOP ( 'NONE', ( #172 ) ) ;
#148 = ADVANCED_FACE ( 'NONE', ( #175, #44 ), #89, .T. ) ;
#149 = DATE_AND_TIME ( #129, #174 ) ;
#150 = PERSON_AND_ORGANIZATION_ROLE ( 'creator' ) ;
#151 = ORIENTED_EDGE ( 'NONE', *, *, #104, .T. ) ;
#152 = EDGE_LOOP ( 'NONE', ( #63 ) ) ;
#153 = AXIS2_PLACEMENT_3D ( 'NONE', #90, #53, #240 ) ;
#154 = CARTESIAN_POINT ( 'NONE',  ( 3.056150814511857788E-30, 4.947092784364737979E-31, 8.753163823365819934E-16 ) ) ;
#155 = PLANE ( 'NONE',  #91 ) ;
#156 = APPROVAL ( #57, 'UNSPECIFIED' ) ;
#157 = DIRECTION ( 'NONE',  ( 3.664998382197393967E-31, 1.000000000000000000, 1.049697256412017316E-16 ) ) ;
#158 = LOCAL_TIME ( 14, 1, 55.00000000000000000, #56 ) ;
#159 = EDGE_LOOP ( 'NONE', ( #20 ) ) ;
#160 = VERTEX_POINT ( 'NONE', #239 ) ;
#161 = CARTESIAN_POINT ( 'NONE',  ( 8.728703347107833388E-16, 1.788999999999998813, 0.2499999999999999445 ) ) ;
#162 = PRODUCT_DEFINITION_SHAPE ( 'NONE', 'NONE',  #199 ) ;
#163 = UNCERTAINTY_MEASURE_WITH_UNIT (LENGTH_MEASURE( 1.000000000000000082E-05 ), #223, 'distance_accuracy_value', 'NONE');
#164 = APPROVAL_DATE_TIME ( #184, #29 ) ;
#165 = DIRECTION ( 'NONE',  ( 0.0000000000000000000, 1.000000000000000000, 0.0000000000000000000 ) ) ;
#166 = CIRCLE ( 'NONE', #219, 1.788999999999992596 ) ;
#167 = DATE_AND_TIME ( #3, #158 ) ;
#168 = ORIENTED_EDGE ( 'NONE', *, *, #207, .F. ) ;
#169 = COORDINATED_UNIVERSAL_TIME_OFFSET ( 1, 0, .AHEAD. ) ;
#170 = CIRCLE ( 'NONE', #115, 1.499999999999997558 ) ;
#171 = ADVANCED_FACE ( 'NONE', ( #62 ), #122, .T. ) ;
#172 = ORIENTED_EDGE ( 'NONE', *, *, #221, .F. ) ;
#173 = DIRECTION ( 'NONE',  ( -3.664998382197393967E-31, -1.000000000000000000, -1.049697256412017316E-16 ) ) ;
#174 = LOCAL_TIME ( 14, 1, 55.00000000000000000, #169 ) ;
#175 = FACE_OUTER_BOUND ( 'NONE', #75, .T. ) ;
#176 = ADVANCED_FACE ( 'NONE', ( #198 ), #155, .T. ) ;
#177 = MANIFOLD_SOLID_BREP ( 'Corps-Déplacer/Copier1[1]', #86 ) ;
#178 = DIRECTION ( 'NONE',  ( -1.973307307699081014E-30, 1.000000000000000000, -5.651776756604163737E-16 ) ) ;
#179 = DIRECTION ( 'NONE',  ( -3.491481338843133355E-15, -5.651776756604163737E-16, -1.000000000000000000 ) ) ;
#180 = MANIFOLD_SOLID_BREP ( 'Corps-Déplacer/Copier1[2]', #208 ) ;
#181 = CIRCLE ( 'NONE', #26, 1.788999999999999702 ) ;
#182 = DIRECTION ( 'NONE',  ( -3.491481338843133355E-15, 1.049697256412017316E-16, -1.000000000000000000 ) ) ;
#183 = MECHANICAL_CONTEXT ( 'NONE', #194, 'mechanical' ) ;
#184 = DATE_AND_TIME ( #71, #10 ) ;
#185 = EDGE_CURVE ( 'NONE', #16, #16, #107, .T. ) ;
#186 = DIRECTION ( 'NONE',  ( 0.0000000000000000000, 1.000000000000000000, 0.0000000000000000000 ) ) ;
#187 = PERSON_AND_ORGANIZATION ( #233, #101 ) ;
#188 = AXIS2_PLACEMENT_3D ( 'NONE', #40, #100, #117 ) ;
#189 = APPROVAL_DATE_TIME ( #149, #156 ) ;
#190 = COORDINATED_UNIVERSAL_TIME_OFFSET ( 1, 0, .AHEAD. ) ;
#191 = EDGE_LOOP ( 'NONE', ( #5 ) ) ;
#192 = CC_DESIGN_DATE_AND_TIME_ASSIGNMENT ( #4, #112, ( #199 ) ) ;
#193 = CC_DESIGN_APPROVAL ( #29, ( #199 ) ) ;
#194 = APPLICATION_CONTEXT ( 'configuration controlled 3d designs of mechanical parts and assemblies' ) ;
#195 = CARTESIAN_POINT ( 'NONE',  ( -1.717348989894244657E-30, 1.644662432702592492, -4.918682997925662184E-16 ) ) ;
#196 = CARTESIAN_POINT ( 'NONE',  ( 3.694674754080981772E-14, 1.788999999999998813, 10.58196907134315268 ) ) ;
#197 = FACE_OUTER_BOUND ( 'NONE', #37, .T. ) ;
#198 = FACE_OUTER_BOUND ( 'NONE', #120, .T. ) ;
#199 = PRODUCT_DEFINITION ( 'UNKNOWN', '', #125, #205 ) ;
#200 = CARTESIAN_POINT ( 'NONE',  ( 2.444036937190193601E-13, -7.347880794884121511E-15, 70.00000000000000000 ) ) ;
#201 = AXIS2_PLACEMENT_3D ( 'NONE', #154, #82, #178 ) ;
#202 = LOCAL_TIME ( 14, 1, 55.00000000000000000, #190 ) ;
#203 =( NAMED_UNIT ( * ) PLANE_ANGLE_UNIT ( ) SI_UNIT ( $, .RADIAN. ) );
#204 = DIRECTION ( 'NONE',  ( -3.491481338843133355E-15, 1.049697256412017316E-16, -1.000000000000000000 ) ) ;
#205 = DESIGN_CONTEXT ( 'detailed design', #79, 'design' ) ;
#206 = APPROVAL_STATUS ( 'not_yet_approved' ) ;
#207 = EDGE_CURVE ( 'NONE', #143, #143, #47, .T. ) ;
#208 = CLOSED_SHELL ( 'NONE', ( #46, #148, #42, #171 ) ) ;
#209 = CARTESIAN_POINT ( 'NONE',  ( 3.694674754080982403E-14, 1.788999999999998813, 10.58196907134315445 ) ) ;
#210 = CC_DESIGN_DATE_AND_TIME_ASSIGNMENT ( #167, #131, ( #22 ) ) ;
#211 = CIRCLE ( 'NONE', #60, 1.499999999999992673 ) ;
#212 = PERSON_AND_ORGANIZATION ( #233, #101 ) ;
#213 = ORIENTED_EDGE ( 'NONE', *, *, #235, .T. ) ;
#214 = ADVANCED_FACE ( 'NONE', ( #128, #146 ), #52, .T. ) ;
#215 = AXIS2_PLACEMENT_3D ( 'NONE', #41, #80, #13 ) ;
#216 = PLANE ( 'NONE',  #35 ) ;
#217 = ORIENTED_EDGE ( 'NONE', *, *, #38, .T. ) ;
#218 = DIRECTION ( 'NONE',  ( -1.937771883676370865E-30, 1.000000000000000000, -5.757362011521687809E-16 ) ) ;
#219 = AXIS2_PLACEMENT_3D ( 'NONE', #140, #105, #220 ) ;
#220 = DIRECTION ( 'NONE',  ( -3.444927793202448692E-30, 1.000000000000000000, -9.696609703615508146E-16 ) ) ;
#221 = EDGE_CURVE ( 'NONE', #145, #145, #211, .T. ) ;
#222 = DIRECTION ( 'NONE',  ( 3.664998382197393967E-31, 1.000000000000000000, 1.049697256412017316E-16 ) ) ;
#223 =( LENGTH_UNIT ( ) NAMED_UNIT ( * ) SI_UNIT ( .MILLI., .METRE. ) );
#224 = APPLICATION_PROTOCOL_DEFINITION ( 'international standard', 'config_control_design', 1994, #79 ) ;
#225 = DIRECTION ( 'NONE',  ( -3.491481338843133355E-15, 1.049697256412017316E-16, -1.000000000000000000 ) ) ;
#226 = APPROVAL_PERSON_ORGANIZATION ( #49, #29, #31 ) ;
#227 = APPROVAL ( #23, 'UNSPECIFIED' ) ;
#228 = ORIENTED_EDGE ( 'NONE', *, *, #185, .F. ) ;
#229 = APPROVAL_ROLE ( '' ) ;
#230 = EDGE_LOOP ( 'NONE', ( #217 ) ) ;
#231 = DIRECTION ( 'NONE',  ( -3.491481338843133355E-15, 1.049697256412017316E-16, -1.000000000000000000 ) ) ;
#232 = FACE_BOUND ( 'NONE', #95, .T. ) ;
#233 = PERSON ( 'UNSPECIFIED', 'UNSPECIFIED', 'UNSPECIFIED', ('UNSPECIFIED'), ('UNSPECIFIED'), ('UNSPECIFIED') ) ;
#234 = DIRECTION ( 'NONE',  ( -1.973307307699080664E-30, 1.000000000000000000, -5.651776756604163737E-16 ) ) ;
#235 = EDGE_CURVE ( 'NONE', #15, #15, #181, .T. ) ;
#236 = PLANE ( 'NONE',  #215 ) ;
#237 = CONICAL_SURFACE ( 'NONE', #188, 1.499999999999997558, 0.7853981633974573828 ) ;
#238 = FACE_OUTER_BOUND ( 'NONE', #230, .T. ) ;
#239 = CARTESIAN_POINT ( 'NONE',  ( 3.694674754080982403E-14, 1.788999999999998813, 10.58196907134315445 ) ) ;
#240 = DIRECTION ( 'NONE',  ( 1.000000000000000000, 0.0000000000000000000, 0.0000000000000000000 ) ) ;
#241 = PERSON_AND_ORGANIZATION ( #233, #101 ) ;
#242 = PERSON_AND_ORGANIZATION ( #233, #101 ) ;
#243 = PRODUCT_RELATED_PRODUCT_CATEGORY ( 'detail', '', ( #54 ) ) ;
ENDSEC;
END-ISO-10303-21;
