ISO-10303-21;
HEADER;
FILE_DESCRIPTION (( 'STEP AP203' ),
    '1' );
FILE_NAME ('321260.step',
    '2021-11-26T13:01:54',
    ( '' ),
    ( '' ),
    'SwSTEP 2.0',
    'SolidWorks 2019',
    '' );
FILE_SCHEMA (( 'CONFIG_CONTROL_DESIGN' ));
ENDSEC;

DATA;
#1 = AXIS2_PLACEMENT_3D ( 'NONE', #225, #173, #7 ) ;
#2 = DIRECTION ( 'NONE',  ( -3.491481338843133355E-15, 1.049697256412017316E-16, -1.000000000000000000 ) ) ;
#3 = VERTEX_POINT ( 'NONE', #62 ) ;
#4 = FACE_OUTER_BOUND ( 'NONE', #72, .T. ) ;
#5 = EDGE_CURVE ( 'NONE', #194, #194, #58, .T. ) ;
#6 = AXIS2_PLACEMENT_3D ( 'NONE', #168, #243, #124 ) ;
#7 = DIRECTION ( 'NONE',  ( 0.0000000000000000000, 1.000000000000000000, 0.0000000000000000000 ) ) ;
#8 = DIRECTION ( 'NONE',  ( -1.970994385668130082E-30, 1.000000000000000000, -5.645152284620827516E-16 ) ) ;
#9 = PERSON_AND_ORGANIZATION ( #50, #226 ) ;
#10 = APPLICATION_PROTOCOL_DEFINITION ( 'international standard', 'config_control_design', 1994, #76 ) ;
#11 = PERSON_AND_ORGANIZATION_ROLE ( 'creator' ) ;
#12 = SHAPE_DEFINITION_REPRESENTATION ( #52, #150 ) ;
#13 = CC_DESIGN_PERSON_AND_ORGANIZATION_ASSIGNMENT ( #159, #121, ( #88 ) ) ;
#14 = CARTESIAN_POINT ( 'NONE',  ( 3.042491866609441891E-30, 4.919209998533587641E-31, 8.714043041735231831E-16 ) ) ;
#15 = SECURITY_CLASSIFICATION ( '', '', #138 ) ;
#16 = EDGE_LOOP ( 'NONE', ( #74 ) ) ;
#17 = EDGE_LOOP ( 'NONE', ( #186 ) ) ;
#18 = EDGE_CURVE ( 'NONE', #25, #25, #158, .T. ) ;
#19 = EDGE_LOOP ( 'NONE', ( #203 ) ) ;
#20 = AXIS2_PLACEMENT_3D ( 'NONE', #14, #55, #109 ) ;
#21 = CYLINDRICAL_SURFACE ( 'NONE', #193, 1.783999999999995589 ) ;
#22 = DIRECTION ( 'NONE',  ( -3.491481338843133355E-15, 1.049697256412017316E-16, -1.000000000000000000 ) ) ;
#23 = FACE_OUTER_BOUND ( 'NONE', #36, .T. ) ;
#24 = AXIS2_PLACEMENT_3D ( 'NONE', #172, #44, #98 ) ;
#25 = VERTEX_POINT ( 'NONE', #132 ) ;
#26 = FACE_OUTER_BOUND ( 'NONE', #95, .T. ) ;
#27 = DATE_AND_TIME ( #45, #43 ) ;
#28 = DATE_AND_TIME ( #177, #169 ) ;
#29 = PERSON_AND_ORGANIZATION ( #50, #226 ) ;
#30 = CC_DESIGN_DATE_AND_TIME_ASSIGNMENT ( #215, #199, ( #200 ) ) ;
#31 = APPROVAL_ROLE ( '' ) ;
#32 = AXIS2_PLACEMENT_3D ( 'NONE', #157, #134, #154 ) ;
#33 = EDGE_CURVE ( 'NONE', #230, #230, #120, .T. ) ;
#34 = DIRECTION ( 'NONE',  ( -3.491481338843133355E-15, 1.049697256412017316E-16, -1.000000000000000000 ) ) ;
#35 = AXIS2_PLACEMENT_3D ( 'NONE', #75, #182, #59 ) ;
#36 = EDGE_LOOP ( 'NONE', ( #202 ) ) ;
#37 = ORIENTED_EDGE ( 'NONE', *, *, #241, .T. ) ;
#38 = DIRECTION ( 'NONE',  ( -1.943202858686674437E-30, 1.000000000000000000, -5.773498115814070123E-16 ) ) ;
#39 = FACE_BOUND ( 'NONE', #148, .T. ) ;
#40 = FACE_OUTER_BOUND ( 'NONE', #127, .T. ) ;
#41 = DIRECTION ( 'NONE',  ( 0.0000000000000000000, 1.000000000000000000, 0.0000000000000000000 ) ) ;
#42 = FACE_OUTER_BOUND ( 'NONE', #206, .T. ) ;
#43 = LOCAL_TIME ( 14, 1, 54.00000000000000000, #51 ) ;
#44 = DIRECTION ( 'NONE',  ( 3.491481338843133355E-15, 5.645152284620827516E-16, 1.000000000000000000 ) ) ;
#45 = CALENDAR_DATE ( 2021, 26, 11 ) ;
#46 = APPROVAL_ROLE ( '' ) ;
#47 = APPROVAL_PERSON_ORGANIZATION ( #160, #117, #46 ) ;
#48 = EDGE_CURVE ( 'NONE', #65, #65, #162, .T. ) ;
#49 = APPLICATION_PROTOCOL_DEFINITION ( 'international standard', 'config_control_design', 1994, #137 ) ;
#50 = PERSON ( 'UNSPECIFIED', 'UNSPECIFIED', 'UNSPECIFIED', ('UNSPECIFIED'), ('UNSPECIFIED'), ('UNSPECIFIED') ) ;
#51 = COORDINATED_UNIVERSAL_TIME_OFFSET ( 1, 0, .AHEAD. ) ;
#52 = PRODUCT_DEFINITION_SHAPE ( 'NONE', 'NONE',  #200 ) ;
#53 = EDGE_CURVE ( 'NONE', #195, #195, #176, .T. ) ;
#54 = AXIS2_PLACEMENT_3D ( 'NONE', #240, #229, #210 ) ;
#55 = DIRECTION ( 'NONE',  ( -3.491481338843133355E-15, -5.645152284620827516E-16, -1.000000000000000000 ) ) ;
#56 = LOCAL_TIME ( 14, 1, 54.00000000000000000, #86 ) ;
#57 = ADVANCED_FACE ( 'NONE', ( #90, #165 ), #149, .T. ) ;
#58 = CIRCLE ( 'NONE', #6, 1.199999999999997513 ) ;
#59 = DIRECTION ( 'NONE',  ( -3.454582859887432976E-30, 1.000000000000000000, -9.723786300318465966E-16 ) ) ;
#60 = CARTESIAN_POINT ( 'NONE',  ( 3.042491866609441891E-30, 4.919209998533587641E-31, 8.714043041735231831E-16 ) ) ;
#61 = ADVANCED_FACE ( 'NONE', ( #4, #26 ), #112, .T. ) ;
#62 = CARTESIAN_POINT ( 'NONE',  ( 2.433562493173664138E-13, 1.499999999999990230, 69.70000000000001705 ) ) ;
#63 = FACE_OUTER_BOUND ( 'NONE', #108, .T. ) ;
#64 = DIRECTION ( 'NONE',  ( 3.491481338843133355E-15, 5.645152284620827516E-16, 1.000000000000000000 ) ) ;
#65 = VERTEX_POINT ( 'NONE', #135 ) ;
#66 = AXIS2_PLACEMENT_3D ( 'NONE', #218, #178, #163 ) ;
#67 = DATE_AND_TIME ( #140, #115 ) ;
#68 = COORDINATED_UNIVERSAL_TIME_OFFSET ( 1, 0, .AHEAD. ) ;
#69 =( LENGTH_UNIT ( ) NAMED_UNIT ( * ) SI_UNIT ( .MILLI., .METRE. ) );
#70 = ORIENTED_EDGE ( 'NONE', *, *, #185, .F. ) ;
#71 = AXIS2_PLACEMENT_3D ( 'NONE', #60, #64, #170 ) ;
#72 = EDGE_LOOP ( 'NONE', ( #37 ) ) ;
#73 = CC_DESIGN_PERSON_AND_ORGANIZATION_ASSIGNMENT ( #29, #122, ( #129 ) ) ;
#74 = ORIENTED_EDGE ( 'NONE', *, *, #48, .F. ) ;
#75 = CARTESIAN_POINT ( 'NONE',  ( 3.697698465617259908E-14, 5.978571533174688039E-15, 10.59062932538099844 ) ) ;
#76 = APPLICATION_CONTEXT ( 'configuration controlled 3d designs of mechanical parts and assemblies' ) ;
#77 = FACE_BOUND ( 'NONE', #16, .T. ) ;
#78 = FACE_OUTER_BOUND ( 'NONE', #17, .T. ) ;
#79 = CARTESIAN_POINT ( 'NONE',  ( 3.697698465617259277E-14, 1.783999999999998698, 10.59062932538099666 ) ) ;
#80 = CARTESIAN_POINT ( 'NONE',  ( 2.444036937190193601E-13, -7.347880794884121511E-15, 70.00000000000000000 ) ) ;
#81 = PLANE ( 'NONE',  #99 ) ;
#82 = CONICAL_SURFACE ( 'NONE', #1, 1.499999999999997558, 0.7853981633974573828 ) ;
#83 = CLOSED_SHELL ( 'NONE', ( #232, #207, #61, #57, #141 ) ) ;
#84 = CC_DESIGN_PERSON_AND_ORGANIZATION_ASSIGNMENT ( #233, #196, ( #88 ) ) ;
#85 = MANIFOLD_SOLID_BREP ( 'Corps-Déplacer/Copier1[1]', #83 ) ;
#86 = COORDINATED_UNIVERSAL_TIME_OFFSET ( 1, 0, .AHEAD. ) ;
#87 = MECHANICAL_CONTEXT ( 'NONE', #76, 'mechanical' ) ;
#88 = PRODUCT_DEFINITION_FORMATION_WITH_SPECIFIED_SOURCE ( 'ANY', '', #129, .NOT_KNOWN. ) ;
#89 = DATE_AND_TIME ( #180, #201 ) ;
#90 = FACE_BOUND ( 'NONE', #221, .T. ) ;
#91 = CC_DESIGN_APPROVAL ( #174, ( #88 ) ) ;
#92 = ORIENTED_EDGE ( 'NONE', *, *, #185, .T. ) ;
#93 = ORIENTED_EDGE ( 'NONE', *, *, #33, .F. ) ;
#94 = UNCERTAINTY_MEASURE_WITH_UNIT (LENGTH_MEASURE( 1.000000000000000082E-05 ), #69, 'distance_accuracy_value', 'NONE');
#95 = EDGE_LOOP ( 'NONE', ( #70 ) ) ;
#96 = CARTESIAN_POINT ( 'NONE',  ( 2.444036937190193601E-13, 1.199999999999990186, 70.00000000000000000 ) ) ;
#97 = PLANE ( 'NONE',  #239 ) ;
#98 = DIRECTION ( 'NONE',  ( 1.970994385668130082E-30, -1.000000000000000000, 5.645152284620827516E-16 ) ) ;
#99 = AXIS2_PLACEMENT_3D ( 'NONE', #224, #211, #8 ) ;
#100 = DIRECTION ( 'NONE',  ( -3.491481338843133355E-15, 1.049697256412017316E-16, -1.000000000000000000 ) ) ;
#101 = APPROVAL_PERSON_ORGANIZATION ( #236, #189, #31 ) ;
#102 = CALENDAR_DATE ( 2021, 26, 11 ) ;
#103 = PERSON_AND_ORGANIZATION ( #50, #226 ) ;
#104 = COORDINATED_UNIVERSAL_TIME_OFFSET ( 1, 0, .AHEAD. ) ;
#105 = ORIENTED_EDGE ( 'NONE', *, *, #5, .F. ) ;
#106 = CLOSED_SHELL ( 'NONE', ( #164, #242, #146, #125 ) ) ;
#107 = ORIENTED_EDGE ( 'NONE', *, *, #48, .T. ) ;
#108 = EDGE_LOOP ( 'NONE', ( #105 ) ) ;
#109 = DIRECTION ( 'NONE',  ( -1.970994385668130082E-30, 1.000000000000000000, -5.645152284620827516E-16 ) ) ;
#110 = AXIS2_PLACEMENT_3D ( 'NONE', #208, #100, #41 ) ;
#111 = DIRECTION ( 'NONE',  ( -3.664998382197393967E-31, -1.000000000000000000, -1.049697256412017316E-16 ) ) ;
#112 = CYLINDRICAL_SURFACE ( 'NONE', #205, 1.499999999999995337 ) ;
#113 = DIRECTION ( 'NONE',  ( 3.491481338843133355E-15, -1.049697256412017316E-16, 1.000000000000000000 ) ) ;
#114 = DIRECTION ( 'NONE',  ( -1.970994385668130082E-30, 1.000000000000000000, -5.645152284620827516E-16 ) ) ;
#115 = LOCAL_TIME ( 14, 1, 54.00000000000000000, #123 ) ;
#116 = CARTESIAN_POINT ( 'NONE',  ( 3.697698465617259277E-14, 1.783999999999998698, 10.59062932538099666 ) ) ;
#117 = APPROVAL ( #139, 'UNSPECIFIED' ) ;
#118 =( NAMED_UNIT ( * ) SI_UNIT ( $, .STERADIAN. ) SOLID_ANGLE_UNIT ( ) );
#119 =( NAMED_UNIT ( * ) PLANE_ANGLE_UNIT ( ) SI_UNIT ( $, .RADIAN. ) );
#120 = CIRCLE ( 'NONE', #166, 1.783999999999998476 ) ;
#121 = PERSON_AND_ORGANIZATION_ROLE ( 'creator' ) ;
#122 = PERSON_AND_ORGANIZATION_ROLE ( 'design_owner' ) ;
#123 = COORDINATED_UNIVERSAL_TIME_OFFSET ( 1, 0, .AHEAD. ) ;
#124 = DIRECTION ( 'NONE',  ( 0.0000000000000000000, 1.000000000000000000, 0.0000000000000000000 ) ) ;
#125 = ADVANCED_FACE ( 'NONE', ( #40 ), #81, .T. ) ;
#126 = APPROVAL_DATE_TIME ( #89, #189 ) ;
#127 = EDGE_LOOP ( 'NONE', ( #107 ) ) ;
#128 = EDGE_LOOP ( 'NONE', ( #223 ) ) ;
#129 = PRODUCT ( '321260', '321260', '', ( #87 ) ) ;
#130 = DIRECTION ( 'NONE',  ( -3.491481338843133355E-15, -5.645152284620827516E-16, -1.000000000000000000 ) ) ;
#131 = PLANE ( 'NONE',  #24 ) ;
#132 = CARTESIAN_POINT ( 'NONE',  ( 3.697698465617259277E-14, 1.783999999999998698, 10.59062932538099666 ) ) ;
#133 = CARTESIAN_POINT ( 'NONE',  ( 0.0000000000000000000, 0.0000000000000000000, 0.0000000000000000000 ) ) ;
#134 = DIRECTION ( 'NONE',  ( -3.491481338843133355E-15, 1.049697256412017316E-16, -1.000000000000000000 ) ) ;
#135 = CARTESIAN_POINT ( 'NONE',  ( -1.892735826383164860E-31, 1.639662432702592598, -5.421010862427522170E-17 ) ) ;
#136 = AXIS2_PLACEMENT_3D ( 'NONE', #80, #113, #111 ) ;
#137 = APPLICATION_CONTEXT ( 'configuration controlled 3d designs of mechanical parts and assemblies' ) ;
#138 = SECURITY_CLASSIFICATION_LEVEL ( 'unclassified' ) ;
#139 = APPROVAL_STATUS ( 'not_yet_approved' ) ;
#140 = CALENDAR_DATE ( 2021, 26, 11 ) ;
#141 = ADVANCED_FACE ( 'NONE', ( #153 ), #97, .T. ) ;
#142 = APPROVAL_STATUS ( 'not_yet_approved' ) ;
#143 = PERSON_AND_ORGANIZATION_ROLE ( 'classification_officer' ) ;
#144 = ORIENTED_EDGE ( 'NONE', *, *, #53, .T. ) ;
#145 = CC_DESIGN_APPROVAL ( #117, ( #200 ) ) ;
#146 = ADVANCED_FACE ( 'NONE', ( #192, #77 ), #219, .T. ) ;
#147 = ORIENTED_EDGE ( 'NONE', *, *, #18, .T. ) ;
#148 = EDGE_LOOP ( 'NONE', ( #184 ) ) ;
#149 = CONICAL_SURFACE ( 'NONE', #54, 1.783999999999999808, 0.5235987755982939307 ) ;
#150 = ADVANCED_BREP_SHAPE_REPRESENTATION ( '321260', ( #85, #167, #66 ), #231 ) ;
#151 = EDGE_LOOP ( 'NONE', ( #144 ) ) ;
#152 = DIRECTION ( 'NONE',  ( 3.664998382197393967E-31, 1.000000000000000000, 1.049697256412017316E-16 ) ) ;
#153 = FACE_OUTER_BOUND ( 'NONE', #151, .T. ) ;
#154 = DIRECTION ( 'NONE',  ( 0.0000000000000000000, 1.000000000000000000, 0.0000000000000000000 ) ) ;
#155 = CARTESIAN_POINT ( 'NONE',  ( 0.0000000000000000000, 0.0000000000000000000, 0.0000000000000000000 ) ) ;
#156 = CC_DESIGN_PERSON_AND_ORGANIZATION_ASSIGNMENT ( #103, #11, ( #200 ) ) ;
#157 = CARTESIAN_POINT ( 'NONE',  ( 2.433562493173664138E-13, -7.316389877191761450E-15, 69.70000000000001705 ) ) ;
#158 = CIRCLE ( 'NONE', #35, 1.783999999999992703 ) ;
#159 = PERSON_AND_ORGANIZATION ( #50, #226 ) ;
#160 = PERSON_AND_ORGANIZATION ( #50, #226 ) ;
#161 = DATE_TIME_ROLE ( 'classification_date' ) ;
#162 = CIRCLE ( 'NONE', #20, 1.639662432702592598 ) ;
#163 = DIRECTION ( 'NONE',  ( 1.000000000000000000, 0.0000000000000000000, 0.0000000000000000000 ) ) ;
#164 = ADVANCED_FACE ( 'NONE', ( #78 ), #131, .T. ) ;
#165 = FACE_OUTER_BOUND ( 'NONE', #19, .T. ) ;
#166 = AXIS2_PLACEMENT_3D ( 'NONE', #220, #130, #38 ) ;
#167 = MANIFOLD_SOLID_BREP ( 'Corps-Déplacer/Copier1[2]', #106 ) ;
#168 = CARTESIAN_POINT ( 'NONE',  ( 2.444036937190193601E-13, -7.347880794884121511E-15, 70.00000000000000000 ) ) ;
#169 = LOCAL_TIME ( 14, 1, 54.00000000000000000, #68 ) ;
#170 = DIRECTION ( 'NONE',  ( 1.970994385668130082E-30, -1.000000000000000000, 5.645152284620827516E-16 ) ) ;
#171 = CARTESIAN_POINT ( 'NONE',  ( 3.869445280877825183E-14, 1.499999999999991562, 11.08253175473057617 ) ) ;
#172 = CARTESIAN_POINT ( 'NONE',  ( 3.697698465617259277E-14, 5.978571533174687250E-15, 10.59062932538099666 ) ) ;
#173 = DIRECTION ( 'NONE',  ( -3.491481338843133355E-15, 1.049697256412017316E-16, -1.000000000000000000 ) ) ;
#174 = APPROVAL ( #234, 'UNSPECIFIED' ) ;
#175 = PLANE ( 'NONE',  #136 ) ;
#176 = CIRCLE ( 'NONE', #222, 1.783999999999999808 ) ;
#177 = CALENDAR_DATE ( 2021, 26, 11 ) ;
#178 = DIRECTION ( 'NONE',  ( 0.0000000000000000000, 0.0000000000000000000, 1.000000000000000000 ) ) ;
#179 = PERSON_AND_ORGANIZATION ( #50, #226 ) ;
#180 = CALENDAR_DATE ( 2021, 26, 11 ) ;
#181 = CC_DESIGN_APPROVAL ( #189, ( #15 ) ) ;
#182 = DIRECTION ( 'NONE',  ( -3.491481338843133355E-15, -5.645152284620827516E-16, -1.000000000000000000 ) ) ;
#183 = CC_DESIGN_SECURITY_CLASSIFICATION ( #15, ( #88 ) ) ;
#184 = ORIENTED_EDGE ( 'NONE', *, *, #5, .T. ) ;
#185 = EDGE_CURVE ( 'NONE', #190, #190, #209, .T. ) ;
#186 = ORIENTED_EDGE ( 'NONE', *, *, #18, .F. ) ;
#187 = DESIGN_CONTEXT ( 'detailed design', #137, 'design' ) ;
#188 = CARTESIAN_POINT ( 'NONE',  ( 3.697698465617259277E-14, -1.111695454652908823E-15, 10.59062932538099666 ) ) ;
#189 = APPROVAL ( #142, 'UNSPECIFIED' ) ;
#190 = VERTEX_POINT ( 'NONE', #171 ) ;
#191 = DIRECTION ( 'NONE',  ( 3.664998382197393967E-31, 1.000000000000000000, 1.049697256412017316E-16 ) ) ;
#192 = FACE_OUTER_BOUND ( 'NONE', #128, .T. ) ;
#193 = AXIS2_PLACEMENT_3D ( 'NONE', #133, #212, #114 ) ;
#194 = VERTEX_POINT ( 'NONE', #96 ) ;
#195 = VERTEX_POINT ( 'NONE', #116 ) ;
#196 = PERSON_AND_ORGANIZATION_ROLE ( 'design_supplier' ) ;
#197 = APPROVAL_PERSON_ORGANIZATION ( #9, #174, #237 ) ;
#198 = CC_DESIGN_PERSON_AND_ORGANIZATION_ASSIGNMENT ( #179, #143, ( #15 ) ) ;
#199 = DATE_TIME_ROLE ( 'creation_date' ) ;
#200 = PRODUCT_DEFINITION ( 'UNKNOWN', '', #88, #187 ) ;
#201 = LOCAL_TIME ( 14, 1, 54.00000000000000000, #104 ) ;
#202 = ORIENTED_EDGE ( 'NONE', *, *, #241, .F. ) ;
#203 = ORIENTED_EDGE ( 'NONE', *, *, #53, .F. ) ;
#204 = EDGE_LOOP ( 'NONE', ( #93 ) ) ;
#205 = AXIS2_PLACEMENT_3D ( 'NONE', #155, #22, #152 ) ;
#206 = EDGE_LOOP ( 'NONE', ( #147 ) ) ;
#207 = ADVANCED_FACE ( 'NONE', ( #39, #23 ), #82, .T. ) ;
#208 = CARTESIAN_POINT ( 'NONE',  ( 3.869445280877825183E-14, -1.163330317703974635E-15, 11.08253175473057617 ) ) ;
#209 = CIRCLE ( 'NONE', #110, 1.499999999999992673 ) ;
#210 = DIRECTION ( 'NONE',  ( 0.0000000000000000000, 1.000000000000000000, 0.0000000000000000000 ) ) ;
#211 = DIRECTION ( 'NONE',  ( -3.491481338843133355E-15, -5.645152284620827516E-16, -1.000000000000000000 ) ) ;
#212 = DIRECTION ( 'NONE',  ( -3.491481338843133355E-15, -5.645152284620827516E-16, -1.000000000000000000 ) ) ;
#213 = PRODUCT_RELATED_PRODUCT_CATEGORY ( 'detail', '', ( #129 ) ) ;
#214 = CARTESIAN_POINT ( 'NONE',  ( 8.728703347107833388E-16, 1.783999999999998698, 0.2499999999999999445 ) ) ;
#215 = DATE_AND_TIME ( #102, #56 ) ;
#216 = APPROVAL_DATE_TIME ( #28, #117 ) ;
#217 = APPROVAL_DATE_TIME ( #67, #174 ) ;
#218 = CARTESIAN_POINT ( 'NONE',  ( 0.0000000000000000000, 0.0000000000000000000, 0.0000000000000000000 ) ) ;
#219 = CONICAL_SURFACE ( 'NONE', #71, 1.639662432702592598, 0.5235987755982970393 ) ;
#220 = CARTESIAN_POINT ( 'NONE',  ( 8.728703347107867901E-16, 1.411288071155212549E-16, 0.2500000000000009992 ) ) ;
#221 = EDGE_LOOP ( 'NONE', ( #92 ) ) ;
#222 = AXIS2_PLACEMENT_3D ( 'NONE', #188, #34, #238 ) ;
#223 = ORIENTED_EDGE ( 'NONE', *, *, #33, .T. ) ;
#224 = CARTESIAN_POINT ( 'NONE',  ( -1.710519515943037059E-30, 1.639662432702592598, -4.899122607110368133E-16 ) ) ;
#225 = CARTESIAN_POINT ( 'NONE',  ( 2.433562493173664138E-13, -7.316389877191761450E-15, 69.70000000000001705 ) ) ;
#226 = ORGANIZATION ( 'UNSPECIFIED', 'UNSPECIFIED', '' ) ;
#227 = FACE_OUTER_BOUND ( 'NONE', #204, .T. ) ;
#228 = CC_DESIGN_DATE_AND_TIME_ASSIGNMENT ( #27, #161, ( #15 ) ) ;
#229 = DIRECTION ( 'NONE',  ( -3.491481338843133355E-15, 1.049697256412017316E-16, -1.000000000000000000 ) ) ;
#230 = VERTEX_POINT ( 'NONE', #214 ) ;
#231 =( GEOMETRIC_REPRESENTATION_CONTEXT ( 3 ) GLOBAL_UNCERTAINTY_ASSIGNED_CONTEXT ( ( #94 ) ) GLOBAL_UNIT_ASSIGNED_CONTEXT ( ( #69, #119, #118 ) ) REPRESENTATION_CONTEXT ( 'NONE', 'WORKASPACE' ) );
#232 = ADVANCED_FACE ( 'NONE', ( #63 ), #175, .T. ) ;
#233 = PERSON_AND_ORGANIZATION ( #50, #226 ) ;
#234 = APPROVAL_STATUS ( 'not_yet_approved' ) ;
#235 = CIRCLE ( 'NONE', #32, 1.499999999999997558 ) ;
#236 = PERSON_AND_ORGANIZATION ( #50, #226 ) ;
#237 = APPROVAL_ROLE ( '' ) ;
#238 = DIRECTION ( 'NONE',  ( 0.0000000000000000000, 1.000000000000000000, 0.0000000000000000000 ) ) ;
#239 = AXIS2_PLACEMENT_3D ( 'NONE', #79, #2, #191 ) ;
#240 = CARTESIAN_POINT ( 'NONE',  ( 3.697698465617259277E-14, -1.111695454652908823E-15, 10.59062932538099666 ) ) ;
#241 = EDGE_CURVE ( 'NONE', #3, #3, #235, .T. ) ;
#242 = ADVANCED_FACE ( 'NONE', ( #42, #227 ), #21, .T. ) ;
#243 = DIRECTION ( 'NONE',  ( -3.491481338843133355E-15, 1.049697256412017316E-16, -1.000000000000000000 ) ) ;
ENDSEC;
END-ISO-10303-21;
