ISO-10303-21;
HEADER;
FILE_DESCRIPTION (( 'STEP AP203' ),
    '1' );
FILE_NAME ('321259.step',
    '2021-11-26T13:01:54',
    ( '' ),
    ( '' ),
    'SwSTEP 2.0',
    'SolidWorks 2019',
    '' );
FILE_SCHEMA (( 'CONFIG_CONTROL_DESIGN' ));
ENDSEC;

DATA;
#1 = AXIS2_PLACEMENT_3D ( 'NONE', #219, #93, #65 ) ;
#2 = COORDINATED_UNIVERSAL_TIME_OFFSET ( 1, 0, .AHEAD. ) ;
#3 = ORIENTED_EDGE ( 'NONE', *, *, #146, .T. ) ;
#4 = AXIS2_PLACEMENT_3D ( 'NONE', #236, #87, #176 ) ;
#5 = ORIENTED_EDGE ( 'NONE', *, *, #182, .T. ) ;
#6 = DATE_AND_TIME ( #152, #189 ) ;
#7 = ORIENTED_EDGE ( 'NONE', *, *, #131, .T. ) ;
#8 = ORIENTED_EDGE ( 'NONE', *, *, #175, .F. ) ;
#9 = APPROVAL ( #192, 'UNSPECIFIED' ) ;
#10 = DIRECTION ( 'NONE',  ( -3.491481338843133355E-15, 1.049697256412017316E-16, -1.000000000000000000 ) ) ;
#11 = CARTESIAN_POINT ( 'NONE',  ( 3.700722177153538043E-14, 5.976450382697234795E-15, 10.59928957941884420 ) ) ;
#12 = FACE_BOUND ( 'NONE', #27, .T. ) ;
#13 = PRODUCT_DEFINITION ( 'UNKNOWN', '', #35, #76 ) ;
#14 = CC_DESIGN_APPROVAL ( #9, ( #35 ) ) ;
#15 = DIRECTION ( 'NONE',  ( 0.0000000000000000000, 1.000000000000000000, 0.0000000000000000000 ) ) ;
#16 = DIRECTION ( 'NONE',  ( -1.968685243228670220E-30, 1.000000000000000000, -5.638538637817763784E-16 ) ) ;
#17 = APPROVAL_STATUS ( 'not_yet_approved' ) ;
#18 = ADVANCED_FACE ( 'NONE', ( #36 ), #66, .T. ) ;
#19 =( LENGTH_UNIT ( ) NAMED_UNIT ( * ) SI_UNIT ( .MILLI., .METRE. ) );
#20 = DIRECTION ( 'NONE',  ( -3.491481338843133355E-15, 1.049697256412017316E-16, -1.000000000000000000 ) ) ;
#21 = FACE_OUTER_BOUND ( 'NONE', #100, .T. ) ;
#22 = CIRCLE ( 'NONE', #204, 1.499999999999992673 ) ;
#23 = PERSON_AND_ORGANIZATION ( #73, #135 ) ;
#24 = ADVANCED_FACE ( 'NONE', ( #120 ), #88, .T. ) ;
#25 = AXIS2_PLACEMENT_3D ( 'NONE', #116, #10, #107 ) ;
#26 = EDGE_LOOP ( 'NONE', ( #5 ) ) ;
#27 = EDGE_LOOP ( 'NONE', ( #113 ) ) ;
#28 = APPROVAL_STATUS ( 'not_yet_approved' ) ;
#29 = ADVANCED_FACE ( 'NONE', ( #106 ), #214, .T. ) ;
#30 = DIRECTION ( 'NONE',  ( 3.491481338843133355E-15, 5.638538637817763784E-16, 1.000000000000000000 ) ) ;
#31 = AXIS2_PLACEMENT_3D ( 'NONE', #139, #142, #121 ) ;
#32 = FACE_OUTER_BOUND ( 'NONE', #228, .T. ) ;
#33 = FACE_OUTER_BOUND ( 'NONE', #103, .T. ) ;
#34 = CARTESIAN_POINT ( 'NONE',  ( -1.703704695780094375E-30, 1.634662432702592483, -4.879604186412750175E-16 ) ) ;
#35 = PRODUCT_DEFINITION_FORMATION_WITH_SPECIFIED_SOURCE ( 'ANY', '', #210, .NOT_KNOWN. ) ;
#36 = FACE_OUTER_BOUND ( 'NONE', #82, .T. ) ;
#37 = CARTESIAN_POINT ( 'NONE',  ( 2.433562493173664138E-13, 1.499999999999990230, 69.70000000000001705 ) ) ;
#38 = COORDINATED_UNIVERSAL_TIME_OFFSET ( 1, 0, .AHEAD. ) ;
#39 = CC_DESIGN_SECURITY_CLASSIFICATION ( #154, ( #35 ) ) ;
#40 = DIRECTION ( 'NONE',  ( 0.0000000000000000000, 0.0000000000000000000, 1.000000000000000000 ) ) ;
#41 = ADVANCED_FACE ( 'NONE', ( #12, #138 ), #115, .T. ) ;
#42 = VERTEX_POINT ( 'NONE', #37 ) ;
#43 = EDGE_LOOP ( 'NONE', ( #114 ) ) ;
#44 = EDGE_LOOP ( 'NONE', ( #45 ) ) ;
#45 = ORIENTED_EDGE ( 'NONE', *, *, #226, .T. ) ;
#46 = APPROVAL_PERSON_ORGANIZATION ( #23, #89, #99 ) ;
#47 = PERSON_AND_ORGANIZATION ( #73, #135 ) ;
#48 = CC_DESIGN_PERSON_AND_ORGANIZATION_ASSIGNMENT ( #94, #165, ( #13 ) ) ;
#49 = DIRECTION ( 'NONE',  ( -3.491481338843133355E-15, 1.049697256412017316E-16, -1.000000000000000000 ) ) ;
#50 = DIRECTION ( 'NONE',  ( 3.491481338843133355E-15, 5.638538637817763784E-16, 1.000000000000000000 ) ) ;
#51 = CARTESIAN_POINT ( 'NONE',  ( 3.869445280877825183E-14, -1.163330317703974635E-15, 11.08253175473057617 ) ) ;
#52 = CARTESIAN_POINT ( 'NONE',  ( 2.433562493173664138E-13, -7.316389877191761450E-15, 69.70000000000001705 ) ) ;
#53 = CONICAL_SURFACE ( 'NONE', #144, 1.778999999999999693, 0.5235987755982944858 ) ;
#54 = LOCAL_TIME ( 14, 1, 54.00000000000000000, #222 ) ;
#55 = APPROVAL ( #17, 'UNSPECIFIED' ) ;
#56 = CARTESIAN_POINT ( 'NONE',  ( 2.444036937190193601E-13, 1.199999999999990186, 70.00000000000000000 ) ) ;
#57 =( NAMED_UNIT ( * ) PLANE_ANGLE_UNIT ( ) SI_UNIT ( $, .RADIAN. ) );
#58 = UNCERTAINTY_MEASURE_WITH_UNIT (LENGTH_MEASURE( 1.000000000000000082E-05 ), #19, 'distance_accuracy_value', 'NONE');
#59 = PERSON_AND_ORGANIZATION ( #73, #135 ) ;
#60 = DATE_AND_TIME ( #101, #86 ) ;
#61 = CALENDAR_DATE ( 2021, 26, 11 ) ;
#62 = SECURITY_CLASSIFICATION_LEVEL ( 'unclassified' ) ;
#63 = EDGE_CURVE ( 'NONE', #143, #143, #91, .T. ) ;
#64 = EDGE_LOOP ( 'NONE', ( #151 ) ) ;
#65 = DIRECTION ( 'NONE',  ( -3.664998382197393967E-31, -1.000000000000000000, -1.049697256412017316E-16 ) ) ;
#66 = PLANE ( 'NONE',  #127 ) ;
#67 = EDGE_LOOP ( 'NONE', ( #196 ) ) ;
#68 = APPROVAL_PERSON_ORGANIZATION ( #209, #55, #126 ) ;
#69 = FACE_OUTER_BOUND ( 'NONE', #193, .T. ) ;
#70 = CARTESIAN_POINT ( 'NONE',  ( 0.0000000000000000000, 0.0000000000000000000, 0.0000000000000000000 ) ) ;
#71 = ADVANCED_FACE ( 'NONE', ( #92, #32 ), #53, .T. ) ;
#72 = CALENDAR_DATE ( 2021, 26, 11 ) ;
#73 = PERSON ( 'UNSPECIFIED', 'UNSPECIFIED', 'UNSPECIFIED', ('UNSPECIFIED'), ('UNSPECIFIED'), ('UNSPECIFIED') ) ;
#74 = AXIS2_PLACEMENT_3D ( 'NONE', #105, #50, #215 ) ;
#75 = CALENDAR_DATE ( 2021, 26, 11 ) ;
#76 = DESIGN_CONTEXT ( 'detailed design', #183, 'design' ) ;
#77 = DIRECTION ( 'NONE',  ( -3.491481338843133355E-15, -5.638538637817763784E-16, -1.000000000000000000 ) ) ;
#78 = CARTESIAN_POINT ( 'NONE',  ( 0.0000000000000000000, 0.0000000000000000000, 0.0000000000000000000 ) ) ;
#79 = LOCAL_TIME ( 14, 1, 54.00000000000000000, #2 ) ;
#80 = APPROVAL_DATE_TIME ( #190, #89 ) ;
#81 = MANIFOLD_SOLID_BREP ( 'Corps-Déplacer/Copier1[1]', #122 ) ;
#82 = EDGE_LOOP ( 'NONE', ( #230 ) ) ;
#83 = CIRCLE ( 'NONE', #31, 1.778999999999999693 ) ;
#84 = PERSON_AND_ORGANIZATION_ROLE ( 'creator' ) ;
#85 = ORIENTED_EDGE ( 'NONE', *, *, #226, .F. ) ;
#86 = LOCAL_TIME ( 14, 1, 54.00000000000000000, #231 ) ;
#87 = DIRECTION ( 'NONE',  ( -3.491481338843133355E-15, 1.049697256412017316E-16, -1.000000000000000000 ) ) ;
#88 = PLANE ( 'NONE',  #25 ) ;
#89 = APPROVAL ( #28, 'UNSPECIFIED' ) ;
#90 = DIRECTION ( 'NONE',  ( -3.491481338843133355E-15, 1.049697256412017316E-16, -1.000000000000000000 ) ) ;
#91 = CIRCLE ( 'NONE', #4, 1.199999999999997513 ) ;
#92 = FACE_BOUND ( 'NONE', #26, .T. ) ;
#93 = DIRECTION ( 'NONE',  ( 3.491481338843133355E-15, -1.049697256412017316E-16, 1.000000000000000000 ) ) ;
#94 = PERSON_AND_ORGANIZATION ( #73, #135 ) ;
#95 = MECHANICAL_CONTEXT ( 'NONE', #102, 'mechanical' ) ;
#96 = EDGE_CURVE ( 'NONE', #168, #168, #123, .T. ) ;
#97 = CARTESIAN_POINT ( 'NONE',  ( 3.700722177153537412E-14, 1.778999999999998582, 10.59928957941884242 ) ) ;
#98 = ADVANCED_FACE ( 'NONE', ( #163, #160 ), #156, .T. ) ;
#99 = APPROVAL_ROLE ( '' ) ;
#100 = EDGE_LOOP ( 'NONE', ( #218 ) ) ;
#101 = CALENDAR_DATE ( 2021, 26, 11 ) ;
#102 = APPLICATION_CONTEXT ( 'configuration controlled 3d designs of mechanical parts and assemblies' ) ;
#103 = EDGE_LOOP ( 'NONE', ( #85 ) ) ;
#104 = DIRECTION ( 'NONE',  ( -3.491481338843133355E-15, 1.049697256412017316E-16, -1.000000000000000000 ) ) ;
#105 = CARTESIAN_POINT ( 'NONE',  ( 3.028862226283557222E-30, 4.891435764392573521E-31, 8.675006200339995916E-16 ) ) ;
#106 = FACE_OUTER_BOUND ( 'NONE', #67, .T. ) ;
#107 = DIRECTION ( 'NONE',  ( 3.664998382197393967E-31, 1.000000000000000000, 1.049697256412017316E-16 ) ) ;
#108 = DIRECTION ( 'NONE',  ( 0.0000000000000000000, 1.000000000000000000, 0.0000000000000000000 ) ) ;
#109 = CARTESIAN_POINT ( 'NONE',  ( -1.892735826383158072E-31, 1.634662432702592483, -5.421010862427522170E-17 ) ) ;
#110 = DATE_AND_TIME ( #75, #233 ) ;
#111 = DIRECTION ( 'NONE',  ( 3.664998382197393967E-31, 1.000000000000000000, 1.049697256412017316E-16 ) ) ;
#112 = APPROVAL_DATE_TIME ( #6, #9 ) ;
#113 = ORIENTED_EDGE ( 'NONE', *, *, #63, .T. ) ;
#114 = ORIENTED_EDGE ( 'NONE', *, *, #63, .F. ) ;
#115 = CONICAL_SURFACE ( 'NONE', #148, 1.499999999999997558, 0.7853981633974573828 ) ;
#116 = CARTESIAN_POINT ( 'NONE',  ( 3.700722177153538043E-14, 1.778999999999998582, 10.59928957941884420 ) ) ;
#117 = CC_DESIGN_PERSON_AND_ORGANIZATION_ASSIGNMENT ( #225, #134, ( #35 ) ) ;
#118 = CARTESIAN_POINT ( 'NONE',  ( 3.700722177153538043E-14, 5.976450382697234795E-15, 10.59928957941884420 ) ) ;
#119 = DIRECTION ( 'NONE',  ( -3.491481338843133355E-15, 1.049697256412017316E-16, -1.000000000000000000 ) ) ;
#120 = FACE_OUTER_BOUND ( 'NONE', #232, .T. ) ;
#121 = DIRECTION ( 'NONE',  ( 0.0000000000000000000, 1.000000000000000000, 0.0000000000000000000 ) ) ;
#122 = CLOSED_SHELL ( 'NONE', ( #197, #41, #235, #71, #24 ) ) ;
#123 = CIRCLE ( 'NONE', #208, 1.634662432702592483 ) ;
#124 =( NAMED_UNIT ( * ) SI_UNIT ( $, .STERADIAN. ) SOLID_ANGLE_UNIT ( ) );
#125 = DIRECTION ( 'NONE',  ( -1.948664361943242252E-30, 1.000000000000000000, -5.789724923334627496E-16 ) ) ;
#126 = APPROVAL_ROLE ( '' ) ;
#127 = AXIS2_PLACEMENT_3D ( 'NONE', #118, #30, #220 ) ;
#128 = CIRCLE ( 'NONE', #217, 1.778999999999998360 ) ;
#129 = VERTEX_POINT ( 'NONE', #205 ) ;
#130 = APPLICATION_PROTOCOL_DEFINITION ( 'international standard', 'config_control_design', 1994, #183 ) ;
#131 = EDGE_CURVE ( 'NONE', #221, #221, #132, .T. ) ;
#132 = CIRCLE ( 'NONE', #172, 1.778999999999992587 ) ;
#133 = ADVANCED_BREP_SHAPE_REPRESENTATION ( '321259', ( #81, #164, #140 ), #185 ) ;
#134 = PERSON_AND_ORGANIZATION_ROLE ( 'design_supplier' ) ;
#135 = ORGANIZATION ( 'UNSPECIFIED', 'UNSPECIFIED', '' ) ;
#136 = CARTESIAN_POINT ( 'NONE',  ( 8.728703347107867901E-16, 1.409634659454446369E-16, 0.2500000000000009992 ) ) ;
#137 = ADVANCED_FACE ( 'NONE', ( #69, #33 ), #234, .T. ) ;
#138 = FACE_OUTER_BOUND ( 'NONE', #171, .T. ) ;
#139 = CARTESIAN_POINT ( 'NONE',  ( 3.700722177153537412E-14, -1.112604519143244350E-15, 10.59928957941884242 ) ) ;
#140 = AXIS2_PLACEMENT_3D ( 'NONE', #145, #40, #241 ) ;
#141 = PLANE ( 'NONE',  #1 ) ;
#142 = DIRECTION ( 'NONE',  ( -3.491481338843133355E-15, 1.049697256412017316E-16, -1.000000000000000000 ) ) ;
#143 = VERTEX_POINT ( 'NONE', #56 ) ;
#144 = AXIS2_PLACEMENT_3D ( 'NONE', #198, #104, #162 ) ;
#145 = CARTESIAN_POINT ( 'NONE',  ( 0.0000000000000000000, 0.0000000000000000000, 0.0000000000000000000 ) ) ;
#146 = EDGE_CURVE ( 'NONE', #147, #147, #83, .T. ) ;
#147 = VERTEX_POINT ( 'NONE', #97 ) ;
#148 = AXIS2_PLACEMENT_3D ( 'NONE', #202, #49, #15 ) ;
#149 = APPROVAL_ROLE ( '' ) ;
#150 = AXIS2_PLACEMENT_3D ( 'NONE', #78, #20, #111 ) ;
#151 = ORIENTED_EDGE ( 'NONE', *, *, #175, .T. ) ;
#152 = CALENDAR_DATE ( 2021, 26, 11 ) ;
#153 = CLOSED_SHELL ( 'NONE', ( #18, #137, #98, #29 ) ) ;
#154 = SECURITY_CLASSIFICATION ( '', '', #62 ) ;
#155 = ORIENTED_EDGE ( 'NONE', *, *, #96, .F. ) ;
#156 = CONICAL_SURFACE ( 'NONE', #74, 1.634662432702592483, 0.5235987755982970393 ) ;
#157 = DIRECTION ( 'NONE',  ( -3.491481338843133355E-15, -5.638538637817763784E-16, -1.000000000000000000 ) ) ;
#158 = DIRECTION ( 'NONE',  ( -1.968685243228669870E-30, 1.000000000000000000, -5.638538637817763784E-16 ) ) ;
#159 = AXIS2_PLACEMENT_3D ( 'NONE', #34, #199, #16 ) ;
#160 = FACE_BOUND ( 'NONE', #195, .T. ) ;
#161 = CC_DESIGN_APPROVAL ( #55, ( #13 ) ) ;
#162 = DIRECTION ( 'NONE',  ( 0.0000000000000000000, 1.000000000000000000, 0.0000000000000000000 ) ) ;
#163 = FACE_OUTER_BOUND ( 'NONE', #44, .T. ) ;
#164 = MANIFOLD_SOLID_BREP ( 'Corps-Déplacer/Copier1[2]', #153 ) ;
#165 = PERSON_AND_ORGANIZATION_ROLE ( 'creator' ) ;
#166 = CC_DESIGN_APPROVAL ( #89, ( #154 ) ) ;
#167 = PERSON_AND_ORGANIZATION ( #73, #135 ) ;
#168 = VERTEX_POINT ( 'NONE', #109 ) ;
#169 = DATE_TIME_ROLE ( 'classification_date' ) ;
#170 = PERSON_AND_ORGANIZATION ( #73, #135 ) ;
#171 = EDGE_LOOP ( 'NONE', ( #8 ) ) ;
#172 = AXIS2_PLACEMENT_3D ( 'NONE', #11, #157, #181 ) ;
#173 = PERSON_AND_ORGANIZATION_ROLE ( 'classification_officer' ) ;
#174 = ORIENTED_EDGE ( 'NONE', *, *, #146, .F. ) ;
#175 = EDGE_CURVE ( 'NONE', #42, #42, #177, .T. ) ;
#176 = DIRECTION ( 'NONE',  ( 0.0000000000000000000, 1.000000000000000000, 0.0000000000000000000 ) ) ;
#177 = CIRCLE ( 'NONE', #224, 1.499999999999997558 ) ;
#178 = DIRECTION ( 'NONE',  ( -3.491481338843133355E-15, -5.638538637817763784E-16, -1.000000000000000000 ) ) ;
#179 = DIRECTION ( 'NONE',  ( -1.968685243228670220E-30, 1.000000000000000000, -5.638538637817763784E-16 ) ) ;
#180 = AXIS2_PLACEMENT_3D ( 'NONE', #70, #178, #158 ) ;
#181 = DIRECTION ( 'NONE',  ( -3.464292199010219658E-30, 1.000000000000000000, -9.751115660353088390E-16 ) ) ;
#182 = EDGE_CURVE ( 'NONE', #188, #188, #22, .T. ) ;
#183 = APPLICATION_CONTEXT ( 'configuration controlled 3d designs of mechanical parts and assemblies' ) ;
#184 = FACE_OUTER_BOUND ( 'NONE', #64, .T. ) ;
#185 =( GEOMETRIC_REPRESENTATION_CONTEXT ( 3 ) GLOBAL_UNCERTAINTY_ASSIGNED_CONTEXT ( ( #58 ) ) GLOBAL_UNIT_ASSIGNED_CONTEXT ( ( #19, #57, #124 ) ) REPRESENTATION_CONTEXT ( 'NONE', 'WORKASPACE' ) );
#186 = DATE_TIME_ROLE ( 'creation_date' ) ;
#187 = CYLINDRICAL_SURFACE ( 'NONE', #150, 1.499999999999995337 ) ;
#188 = VERTEX_POINT ( 'NONE', #223 ) ;
#189 = LOCAL_TIME ( 14, 1, 54.00000000000000000, #227 ) ;
#190 = DATE_AND_TIME ( #61, #79 ) ;
#191 = CC_DESIGN_PERSON_AND_ORGANIZATION_ASSIGNMENT ( #47, #84, ( #35 ) ) ;
#192 = APPROVAL_STATUS ( 'not_yet_approved' ) ;
#193 = EDGE_LOOP ( 'NONE', ( #7 ) ) ;
#194 = PRODUCT_DEFINITION_SHAPE ( 'NONE', 'NONE',  #13 ) ;
#195 = EDGE_LOOP ( 'NONE', ( #155 ) ) ;
#196 = ORIENTED_EDGE ( 'NONE', *, *, #96, .T. ) ;
#197 = ADVANCED_FACE ( 'NONE', ( #200 ), #141, .T. ) ;
#198 = CARTESIAN_POINT ( 'NONE',  ( 3.700722177153537412E-14, -1.112604519143244350E-15, 10.59928957941884242 ) ) ;
#199 = DIRECTION ( 'NONE',  ( -3.491481338843133355E-15, -5.638538637817763784E-16, -1.000000000000000000 ) ) ;
#200 = FACE_OUTER_BOUND ( 'NONE', #43, .T. ) ;
#201 = DIRECTION ( 'NONE',  ( -3.491481338843133355E-15, -5.638538637817763784E-16, -1.000000000000000000 ) ) ;
#202 = CARTESIAN_POINT ( 'NONE',  ( 2.433562493173664138E-13, -7.316389877191761450E-15, 69.70000000000001705 ) ) ;
#203 = CC_DESIGN_DATE_AND_TIME_ASSIGNMENT ( #110, #186, ( #13 ) ) ;
#204 = AXIS2_PLACEMENT_3D ( 'NONE', #51, #119, #108 ) ;
#205 = CARTESIAN_POINT ( 'NONE',  ( 8.728703347107833388E-16, 1.778999999999998582, 0.2499999999999999445 ) ) ;
#206 = DATE_AND_TIME ( #72, #54 ) ;
#207 = APPROVAL_DATE_TIME ( #206, #55 ) ;
#208 = AXIS2_PLACEMENT_3D ( 'NONE', #238, #201, #179 ) ;
#209 = PERSON_AND_ORGANIZATION ( #73, #135 ) ;
#210 = PRODUCT ( '321259', '321259', '', ( #95 ) ) ;
#211 = CC_DESIGN_DATE_AND_TIME_ASSIGNMENT ( #60, #169, ( #154 ) ) ;
#212 = APPROVAL_PERSON_ORGANIZATION ( #167, #9, #149 ) ;
#213 = SHAPE_DEFINITION_REPRESENTATION ( #194, #133 ) ;
#214 = PLANE ( 'NONE',  #159 ) ;
#215 = DIRECTION ( 'NONE',  ( 1.968685243228670570E-30, -1.000000000000000000, 5.638538637817763784E-16 ) ) ;
#216 = CC_DESIGN_PERSON_AND_ORGANIZATION_ASSIGNMENT ( #59, #243, ( #210 ) ) ;
#217 = AXIS2_PLACEMENT_3D ( 'NONE', #136, #77, #125 ) ;
#218 = ORIENTED_EDGE ( 'NONE', *, *, #182, .F. ) ;
#219 = CARTESIAN_POINT ( 'NONE',  ( 2.444036937190193601E-13, -7.347880794884121511E-15, 70.00000000000000000 ) ) ;
#220 = DIRECTION ( 'NONE',  ( 1.968685243228670220E-30, -1.000000000000000000, 5.638538637817763784E-16 ) ) ;
#221 = VERTEX_POINT ( 'NONE', #240 ) ;
#222 = COORDINATED_UNIVERSAL_TIME_OFFSET ( 1, 0, .AHEAD. ) ;
#223 = CARTESIAN_POINT ( 'NONE',  ( 3.869445280877825183E-14, 1.499999999999991562, 11.08253175473057617 ) ) ;
#224 = AXIS2_PLACEMENT_3D ( 'NONE', #52, #90, #237 ) ;
#225 = PERSON_AND_ORGANIZATION ( #73, #135 ) ;
#226 = EDGE_CURVE ( 'NONE', #129, #129, #128, .T. ) ;
#227 = COORDINATED_UNIVERSAL_TIME_OFFSET ( 1, 0, .AHEAD. ) ;
#228 = EDGE_LOOP ( 'NONE', ( #174 ) ) ;
#229 = CC_DESIGN_PERSON_AND_ORGANIZATION_ASSIGNMENT ( #170, #173, ( #154 ) ) ;
#230 = ORIENTED_EDGE ( 'NONE', *, *, #131, .F. ) ;
#231 = COORDINATED_UNIVERSAL_TIME_OFFSET ( 1, 0, .AHEAD. ) ;
#232 = EDGE_LOOP ( 'NONE', ( #3 ) ) ;
#233 = LOCAL_TIME ( 14, 1, 54.00000000000000000, #38 ) ;
#234 = CYLINDRICAL_SURFACE ( 'NONE', #180, 1.778999999999995474 ) ;
#235 = ADVANCED_FACE ( 'NONE', ( #184, #21 ), #187, .T. ) ;
#236 = CARTESIAN_POINT ( 'NONE',  ( 2.444036937190193601E-13, -7.347880794884121511E-15, 70.00000000000000000 ) ) ;
#237 = DIRECTION ( 'NONE',  ( 0.0000000000000000000, 1.000000000000000000, 0.0000000000000000000 ) ) ;
#238 = CARTESIAN_POINT ( 'NONE',  ( 3.028862226283557222E-30, 4.891435764392573521E-31, 8.675006200339995916E-16 ) ) ;
#239 = APPLICATION_PROTOCOL_DEFINITION ( 'international standard', 'config_control_design', 1994, #102 ) ;
#240 = CARTESIAN_POINT ( 'NONE',  ( 3.700722177153537412E-14, 1.778999999999998582, 10.59928957941884242 ) ) ;
#241 = DIRECTION ( 'NONE',  ( 1.000000000000000000, 0.0000000000000000000, 0.0000000000000000000 ) ) ;
#242 = PRODUCT_RELATED_PRODUCT_CATEGORY ( 'detail', '', ( #210 ) ) ;
#243 = PERSON_AND_ORGANIZATION_ROLE ( 'design_owner' ) ;
ENDSEC;
END-ISO-10303-21;
