ISO-10303-21;
HEADER;
FILE_DESCRIPTION (( 'STEP AP203' ),
    '1' );
FILE_NAME ('321258.step',
    '2021-11-26T13:01:53',
    ( '' ),
    ( '' ),
    'SwSTEP 2.0',
    'SolidWorks 2019',
    '' );
FILE_SCHEMA (( 'CONFIG_CONTROL_DESIGN' ));
ENDSEC;

DATA;
#1 = EDGE_LOOP ( 'NONE', ( #77 ) ) ;
#2 = CARTESIAN_POINT ( 'NONE',  ( 3.015261821754720429E-30, 4.863769649941598929E-31, 8.636053093595500622E-16 ) ) ;
#3 = EDGE_LOOP ( 'NONE', ( #96 ) ) ;
#4 = ADVANCED_FACE ( 'NONE', ( #144 ), #127, .T. ) ;
#5 =( NAMED_UNIT ( * ) PLANE_ANGLE_UNIT ( ) SI_UNIT ( $, .RADIAN. ) );
#6 = EDGE_LOOP ( 'NONE', ( #60 ) ) ;
#7 = APPROVAL_PERSON_ORGANIZATION ( #73, #146, #134 ) ;
#8 = CARTESIAN_POINT ( 'NONE',  ( 8.728703347107831416E-16, 1.773999999999998689, 0.2499999999999999445 ) ) ;
#9 = PRODUCT_DEFINITION ( 'UNKNOWN', '', #215, #145 ) ;
#10 = DIRECTION ( 'NONE',  ( 0.0000000000000000000, 1.000000000000000000, 0.0000000000000000000 ) ) ;
#11 = CARTESIAN_POINT ( 'NONE',  ( 2.433562493173664138E-13, 1.499999999999990230, 69.70000000000001705 ) ) ;
#12 = AXIS2_PLACEMENT_3D ( 'NONE', #164, #239, #18 ) ;
#13 = PRODUCT ( '321258', '321258', '', ( #102 ) ) ;
#14 = COORDINATED_UNIVERSAL_TIME_OFFSET ( 1, 0, .AHEAD. ) ;
#15 = SHAPE_DEFINITION_REPRESENTATION ( #182, #234 ) ;
#16 = DIRECTION ( 'NONE',  ( 1.966379871123808901E-30, -1.000000000000000000, 5.631935789682176946E-16 ) ) ;
#17 = EDGE_CURVE ( 'NONE', #130, #130, #238, .T. ) ;
#18 = DIRECTION ( 'NONE',  ( 0.0000000000000000000, 1.000000000000000000, 0.0000000000000000000 ) ) ;
#19 = DIRECTION ( 'NONE',  ( 0.0000000000000000000, 1.000000000000000000, 0.0000000000000000000 ) ) ;
#20 = DIRECTION ( 'NONE',  ( -3.491481338843133355E-15, -5.631935789682176946E-16, -1.000000000000000000 ) ) ;
#21 = CONICAL_SURFACE ( 'NONE', #194, 1.773999999999999799, 0.5235987755982951519 ) ;
#22 = DIRECTION ( 'NONE',  ( 3.491481338843133355E-15, -1.049697256412017316E-16, 1.000000000000000000 ) ) ;
#23 = EDGE_LOOP ( 'NONE', ( #76 ) ) ;
#24 = ORIENTED_EDGE ( 'NONE', *, *, #17, .T. ) ;
#25 = DIRECTION ( 'NONE',  ( -3.491481338843133355E-15, 1.049697256412017316E-16, -1.000000000000000000 ) ) ;
#26 = CIRCLE ( 'NONE', #12, 1.499999999999997558 ) ;
#27 = FACE_OUTER_BOUND ( 'NONE', #113, .T. ) ;
#28 =( NAMED_UNIT ( * ) SI_UNIT ( $, .STERADIAN. ) SOLID_ANGLE_UNIT ( ) );
#29 = DIRECTION ( 'NONE',  ( -1.954156651576678327E-30, 1.000000000000000000, -5.500461979915190435E-16 ) ) ;
#30 = AXIS2_PLACEMENT_3D ( 'NONE', #2, #181, #16 ) ;
#31 = ADVANCED_FACE ( 'NONE', ( #75 ), #147, .T. ) ;
#32 = PERSON_AND_ORGANIZATION_ROLE ( 'design_supplier' ) ;
#33 = APPLICATION_PROTOCOL_DEFINITION ( 'international standard', 'config_control_design', 1994, #58 ) ;
#34 = PERSON_AND_ORGANIZATION ( #204, #149 ) ;
#35 = DIRECTION ( 'NONE',  ( 0.0000000000000000000, 1.000000000000000000, 0.0000000000000000000 ) ) ;
#36 = EDGE_LOOP ( 'NONE', ( #199 ) ) ;
#37 = LOCAL_TIME ( 14, 1, 53.00000000000000000, #56 ) ;
#38 = PLANE ( 'NONE',  #90 ) ;
#39 = UNCERTAINTY_MEASURE_WITH_UNIT (LENGTH_MEASURE( 1.000000000000000082E-05 ), #65, 'distance_accuracy_value', 'NONE');
#40 = CARTESIAN_POINT ( 'NONE',  ( 3.703745888689814916E-14, -1.113513583633580074E-15, 10.60794983345668818 ) ) ;
#41 = CLOSED_SHELL ( 'NONE', ( #44, #71, #192, #124, #209 ) ) ;
#42 = PLANE ( 'NONE',  #227 ) ;
#43 = CARTESIAN_POINT ( 'NONE',  ( 0.0000000000000000000, 0.0000000000000000000, 0.0000000000000000000 ) ) ;
#44 = ADVANCED_FACE ( 'NONE', ( #108 ), #38, .T. ) ;
#45 = DIRECTION ( 'NONE',  ( -3.491481338843133355E-15, -5.631935789682176946E-16, -1.000000000000000000 ) ) ;
#46 = AXIS2_PLACEMENT_3D ( 'NONE', #81, #45, #101 ) ;
#47 = CYLINDRICAL_SURFACE ( 'NONE', #59, 1.773999999999995580 ) ;
#48 = VERTEX_POINT ( 'NONE', #176 ) ;
#49 = CALENDAR_DATE ( 2021, 26, 11 ) ;
#50 = EDGE_CURVE ( 'NONE', #229, #229, #173, .T. ) ;
#51 = AXIS2_PLACEMENT_3D ( 'NONE', #167, #225, #143 ) ;
#52 = APPROVAL_STATUS ( 'not_yet_approved' ) ;
#53 = CC_DESIGN_APPROVAL ( #146, ( #9 ) ) ;
#54 = EDGE_CURVE ( 'NONE', #117, #117, #188, .T. ) ;
#55 = CALENDAR_DATE ( 2021, 26, 11 ) ;
#56 = COORDINATED_UNIVERSAL_TIME_OFFSET ( 1, 0, .AHEAD. ) ;
#57 = FACE_BOUND ( 'NONE', #1, .T. ) ;
#58 = APPLICATION_CONTEXT ( 'configuration controlled 3d designs of mechanical parts and assemblies' ) ;
#59 = AXIS2_PLACEMENT_3D ( 'NONE', #43, #228, #100 ) ;
#60 = ORIENTED_EDGE ( 'NONE', *, *, #221, .T. ) ;
#61 = CC_DESIGN_SECURITY_CLASSIFICATION ( #74, ( #215 ) ) ;
#62 = ORIENTED_EDGE ( 'NONE', *, *, #50, .T. ) ;
#63 = DIRECTION ( 'NONE',  ( -1.966379871123808551E-30, 1.000000000000000000, -5.631935789682176946E-16 ) ) ;
#64 = ORIENTED_EDGE ( 'NONE', *, *, #54, .T. ) ;
#65 =( LENGTH_UNIT ( ) NAMED_UNIT ( * ) SI_UNIT ( .MILLI., .METRE. ) );
#66 = DIRECTION ( 'NONE',  ( -3.491481338843133355E-15, 1.049697256412017316E-16, -1.000000000000000000 ) ) ;
#67 = LOCAL_TIME ( 14, 1, 53.00000000000000000, #14 ) ;
#68 = APPROVAL_ROLE ( '' ) ;
#69 = DATE_TIME_ROLE ( 'creation_date' ) ;
#70 = APPROVAL_STATUS ( 'not_yet_approved' ) ;
#71 = ADVANCED_FACE ( 'NONE', ( #94, #166 ), #202, .T. ) ;
#72 = PERSON_AND_ORGANIZATION ( #204, #149 ) ;
#73 = PERSON_AND_ORGANIZATION ( #204, #149 ) ;
#74 = SECURITY_CLASSIFICATION ( '', '', #219 ) ;
#75 = FACE_OUTER_BOUND ( 'NONE', #36, .T. ) ;
#76 = ORIENTED_EDGE ( 'NONE', *, *, #95, .F. ) ;
#77 = ORIENTED_EDGE ( 'NONE', *, *, #205, .T. ) ;
#78 = EDGE_LOOP ( 'NONE', ( #62 ) ) ;
#79 = EDGE_LOOP ( 'NONE', ( #183 ) ) ;
#80 = CARTESIAN_POINT ( 'NONE',  ( 0.0000000000000000000, 0.0000000000000000000, 0.0000000000000000000 ) ) ;
#81 = CARTESIAN_POINT ( 'NONE',  ( 3.703745888689815547E-14, 5.974329232219781551E-15, 10.60794983345668996 ) ) ;
#82 = ADVANCED_FACE ( 'NONE', ( #168, #180 ), #231, .T. ) ;
#83 = VERTEX_POINT ( 'NONE', #171 ) ;
#84 = AXIS2_PLACEMENT_3D ( 'NONE', #129, #189, #29 ) ;
#85 = PERSON_AND_ORGANIZATION_ROLE ( 'creator' ) ;
#86 = CIRCLE ( 'NONE', #122, 1.499999999999992673 ) ;
#87 = DATE_AND_TIME ( #137, #140 ) ;
#88 = PERSON_AND_ORGANIZATION_ROLE ( 'creator' ) ;
#89 = CC_DESIGN_PERSON_AND_ORGANIZATION_ASSIGNMENT ( #195, #88, ( #9 ) ) ;
#90 = AXIS2_PLACEMENT_3D ( 'NONE', #222, #22, #128 ) ;
#91 = EDGE_LOOP ( 'NONE', ( #24 ) ) ;
#92 = AXIS2_PLACEMENT_3D ( 'NONE', #213, #66, #210 ) ;
#93 = FACE_OUTER_BOUND ( 'NONE', #201, .T. ) ;
#94 = FACE_BOUND ( 'NONE', #78, .T. ) ;
#95 = EDGE_CURVE ( 'NONE', #187, #187, #26, .T. ) ;
#96 = ORIENTED_EDGE ( 'NONE', *, *, #158, .T. ) ;
#97 = DIRECTION ( 'NONE',  ( 0.0000000000000000000, 1.000000000000000000, 0.0000000000000000000 ) ) ;
#98 = PRODUCT_RELATED_PRODUCT_CATEGORY ( 'detail', '', ( #13 ) ) ;
#99 = EDGE_LOOP ( 'NONE', ( #203 ) ) ;
#100 = DIRECTION ( 'NONE',  ( -1.966379871123808901E-30, 1.000000000000000000, -5.631935789682177933E-16 ) ) ;
#101 = DIRECTION ( 'NONE',  ( -3.474056269469661647E-30, 1.000000000000000000, -9.778599075404814770E-16 ) ) ;
#102 = MECHANICAL_CONTEXT ( 'NONE', #120, 'mechanical' ) ;
#103 = FACE_OUTER_BOUND ( 'NONE', #6, .T. ) ;
#104 = DATE_AND_TIME ( #49, #67 ) ;
#105 = CALENDAR_DATE ( 2021, 26, 11 ) ;
#106 =( GEOMETRIC_REPRESENTATION_CONTEXT ( 3 ) GLOBAL_UNCERTAINTY_ASSIGNED_CONTEXT ( ( #39 ) ) GLOBAL_UNIT_ASSIGNED_CONTEXT ( ( #65, #5, #28 ) ) REPRESENTATION_CONTEXT ( 'NONE', 'WORKASPACE' ) );
#107 = COORDINATED_UNIVERSAL_TIME_OFFSET ( 1, 0, .AHEAD. ) ;
#108 = FACE_OUTER_BOUND ( 'NONE', #240, .T. ) ;
#109 = ORIENTED_EDGE ( 'NONE', *, *, #17, .F. ) ;
#110 = LOCAL_TIME ( 14, 1, 53.00000000000000000, #107 ) ;
#111 = DIRECTION ( 'NONE',  ( -3.491481338843133355E-15, 1.049697256412017316E-16, -1.000000000000000000 ) ) ;
#112 = CARTESIAN_POINT ( 'NONE',  ( 2.444036937190193601E-13, -7.347880794884121511E-15, 70.00000000000000000 ) ) ;
#113 = EDGE_LOOP ( 'NONE', ( #64 ) ) ;
#114 = AXIS2_PLACEMENT_3D ( 'NONE', #206, #186, #97 ) ;
#115 = CARTESIAN_POINT ( 'NONE',  ( 3.703745888689814916E-14, 1.773999999999998689, 10.60794983345668818 ) ) ;
#116 = FACE_OUTER_BOUND ( 'NONE', #226, .T. ) ;
#117 = VERTEX_POINT ( 'NONE', #115 ) ;
#118 = APPROVAL_ROLE ( '' ) ;
#119 = AXIS2_PLACEMENT_3D ( 'NONE', #112, #125, #35 ) ;
#120 = APPLICATION_CONTEXT ( 'configuration controlled 3d designs of mechanical parts and assemblies' ) ;
#121 = APPROVAL_DATE_TIME ( #178, #155 ) ;
#122 = AXIS2_PLACEMENT_3D ( 'NONE', #150, #208, #10 ) ;
#123 = CARTESIAN_POINT ( 'NONE',  ( -1.696904493515676328E-30, 1.629662432702592589, -4.860127633040503021E-16 ) ) ;
#124 = ADVANCED_FACE ( 'NONE', ( #57, #93 ), #21, .T. ) ;
#125 = DIRECTION ( 'NONE',  ( -3.491481338843133355E-15, 1.049697256412017316E-16, -1.000000000000000000 ) ) ;
#126 = APPROVAL_PERSON_ORGANIZATION ( #235, #185, #118 ) ;
#127 = PLANE ( 'NONE',  #177 ) ;
#128 = DIRECTION ( 'NONE',  ( -3.664998382197393967E-31, -1.000000000000000000, -1.049697256412017316E-16 ) ) ;
#129 = CARTESIAN_POINT ( 'NONE',  ( 8.728703347107866915E-16, 1.407983947420549414E-16, 0.2500000000000009437 ) ) ;
#130 = VERTEX_POINT ( 'NONE', #230 ) ;
#131 = DIRECTION ( 'NONE',  ( 0.0000000000000000000, 1.000000000000000000, 0.0000000000000000000 ) ) ;
#132 = DIRECTION ( 'NONE',  ( 1.000000000000000000, 0.0000000000000000000, 0.0000000000000000000 ) ) ;
#133 = APPROVAL_PERSON_ORGANIZATION ( #72, #155, #68 ) ;
#134 = APPROVAL_ROLE ( '' ) ;
#135 = LOCAL_TIME ( 14, 1, 53.00000000000000000, #156 ) ;
#136 = CALENDAR_DATE ( 2021, 26, 11 ) ;
#137 = CALENDAR_DATE ( 2021, 26, 11 ) ;
#138 = PERSON_AND_ORGANIZATION ( #204, #149 ) ;
#139 = CLOSED_SHELL ( 'NONE', ( #31, #216, #82, #4 ) ) ;
#140 = LOCAL_TIME ( 14, 1, 53.00000000000000000, #236 ) ;
#141 = DIRECTION ( 'NONE',  ( -1.966379871123808551E-30, 1.000000000000000000, -5.631935789682176946E-16 ) ) ;
#142 = DIRECTION ( 'NONE',  ( -3.491481338843133355E-15, 1.049697256412017316E-16, -1.000000000000000000 ) ) ;
#143 = DIRECTION ( 'NONE',  ( 1.966379871123808551E-30, -1.000000000000000000, 5.631935789682176946E-16 ) ) ;
#144 = FACE_OUTER_BOUND ( 'NONE', #91, .T. ) ;
#145 = DESIGN_CONTEXT ( 'detailed design', #58, 'design' ) ;
#146 = APPROVAL ( #70, 'UNSPECIFIED' ) ;
#147 = PLANE ( 'NONE',  #51 ) ;
#148 = DIRECTION ( 'NONE',  ( 0.0000000000000000000, 0.0000000000000000000, 1.000000000000000000 ) ) ;
#149 = ORGANIZATION ( 'UNSPECIFIED', 'UNSPECIFIED', '' ) ;
#150 = CARTESIAN_POINT ( 'NONE',  ( 3.869445280877825183E-14, -1.163330317703974635E-15, 11.08253175473057617 ) ) ;
#151 = CC_DESIGN_DATE_AND_TIME_ASSIGNMENT ( #104, #69, ( #9 ) ) ;
#152 = APPLICATION_PROTOCOL_DEFINITION ( 'international standard', 'config_control_design', 1994, #120 ) ;
#153 = CIRCLE ( 'NONE', #84, 1.773999999999998467 ) ;
#154 = CYLINDRICAL_SURFACE ( 'NONE', #92, 1.499999999999995337 ) ;
#155 = APPROVAL ( #52, 'UNSPECIFIED' ) ;
#156 = COORDINATED_UNIVERSAL_TIME_OFFSET ( 1, 0, .AHEAD. ) ;
#157 = PERSON_AND_ORGANIZATION_ROLE ( 'classification_officer' ) ;
#158 = EDGE_CURVE ( 'NONE', #175, #175, #153, .T. ) ;
#159 = DATE_AND_TIME ( #136, #110 ) ;
#160 = MANIFOLD_SOLID_BREP ( 'Corps-Déplacer/Copier1[2]', #139 ) ;
#161 = APPROVAL_DATE_TIME ( #87, #185 ) ;
#162 = AXIS2_PLACEMENT_3D ( 'NONE', #40, #111, #19 ) ;
#163 = CC_DESIGN_PERSON_AND_ORGANIZATION_ASSIGNMENT ( #198, #85, ( #215 ) ) ;
#164 = CARTESIAN_POINT ( 'NONE',  ( 2.433562493173664138E-13, -7.316389877191761450E-15, 69.70000000000001705 ) ) ;
#165 = CARTESIAN_POINT ( 'NONE',  ( 3.703745888689814916E-14, -1.113513583633580074E-15, 10.60794983345668818 ) ) ;
#166 = FACE_OUTER_BOUND ( 'NONE', #23, .T. ) ;
#167 = CARTESIAN_POINT ( 'NONE',  ( 3.703745888689815547E-14, 5.974329232219782340E-15, 10.60794983345668996 ) ) ;
#168 = FACE_OUTER_BOUND ( 'NONE', #3, .T. ) ;
#169 = CARTESIAN_POINT ( 'NONE',  ( 3.703745888689815547E-14, 1.773999999999998689, 10.60794983345668996 ) ) ;
#170 = ORIENTED_EDGE ( 'NONE', *, *, #54, .F. ) ;
#171 = CARTESIAN_POINT ( 'NONE',  ( 3.703745888689814916E-14, 1.773999999999998689, 10.60794983345668818 ) ) ;
#172 = CC_DESIGN_PERSON_AND_ORGANIZATION_ASSIGNMENT ( #138, #32, ( #215 ) ) ;
#173 = CIRCLE ( 'NONE', #119, 1.199999999999997513 ) ;
#174 = CC_DESIGN_APPROVAL ( #185, ( #215 ) ) ;
#175 = VERTEX_POINT ( 'NONE', #8 ) ;
#176 = CARTESIAN_POINT ( 'NONE',  ( 3.869445280877825183E-14, 1.499999999999991562, 11.08253175473057617 ) ) ;
#177 = AXIS2_PLACEMENT_3D ( 'NONE', #123, #223, #141 ) ;
#178 = DATE_AND_TIME ( #55, #37 ) ;
#179 = APPROVAL_DATE_TIME ( #218, #146 ) ;
#180 = FACE_BOUND ( 'NONE', #224, .T. ) ;
#181 = DIRECTION ( 'NONE',  ( 3.491481338843133355E-15, 5.631935789682176946E-16, 1.000000000000000000 ) ) ;
#182 = PRODUCT_DEFINITION_SHAPE ( 'NONE', 'NONE',  #9 ) ;
#183 = ORIENTED_EDGE ( 'NONE', *, *, #95, .T. ) ;
#184 = CARTESIAN_POINT ( 'NONE',  ( 3.015261821754720429E-30, 4.863769649941598929E-31, 8.636053093595500622E-16 ) ) ;
#185 = APPROVAL ( #214, 'UNSPECIFIED' ) ;
#186 = DIRECTION ( 'NONE',  ( -3.491481338843133355E-15, 1.049697256412017316E-16, -1.000000000000000000 ) ) ;
#187 = VERTEX_POINT ( 'NONE', #11 ) ;
#188 = CIRCLE ( 'NONE', #162, 1.773999999999999799 ) ;
#189 = DIRECTION ( 'NONE',  ( -3.491481338843133355E-15, -5.631935789682176946E-16, -1.000000000000000000 ) ) ;
#190 = DIRECTION ( 'NONE',  ( 3.664998382197393967E-31, 1.000000000000000000, 1.049697256412017316E-16 ) ) ;
#191 = FACE_OUTER_BOUND ( 'NONE', #79, .T. ) ;
#192 = ADVANCED_FACE ( 'NONE', ( #191, #232 ), #154, .T. ) ;
#193 = AXIS2_PLACEMENT_3D ( 'NONE', #184, #20, #63 ) ;
#194 = AXIS2_PLACEMENT_3D ( 'NONE', #165, #142, #131 ) ;
#195 = PERSON_AND_ORGANIZATION ( #204, #149 ) ;
#196 = PERSON_AND_ORGANIZATION_ROLE ( 'design_owner' ) ;
#197 = CC_DESIGN_APPROVAL ( #155, ( #74 ) ) ;
#198 = PERSON_AND_ORGANIZATION ( #204, #149 ) ;
#199 = ORIENTED_EDGE ( 'NONE', *, *, #221, .F. ) ;
#200 = CC_DESIGN_PERSON_AND_ORGANIZATION_ASSIGNMENT ( #34, #157, ( #74 ) ) ;
#201 = EDGE_LOOP ( 'NONE', ( #170 ) ) ;
#202 = CONICAL_SURFACE ( 'NONE', #114, 1.499999999999997558, 0.7853981633974573828 ) ;
#203 = ORIENTED_EDGE ( 'NONE', *, *, #205, .F. ) ;
#204 = PERSON ( 'UNSPECIFIED', 'UNSPECIFIED', 'UNSPECIFIED', ('UNSPECIFIED'), ('UNSPECIFIED'), ('UNSPECIFIED') ) ;
#205 = EDGE_CURVE ( 'NONE', #48, #48, #86, .T. ) ;
#206 = CARTESIAN_POINT ( 'NONE',  ( 2.433562493173664138E-13, -7.316389877191761450E-15, 69.70000000000001705 ) ) ;
#207 = ORIENTED_EDGE ( 'NONE', *, *, #50, .F. ) ;
#208 = DIRECTION ( 'NONE',  ( -3.491481338843133355E-15, 1.049697256412017316E-16, -1.000000000000000000 ) ) ;
#209 = ADVANCED_FACE ( 'NONE', ( #27 ), #42, .T. ) ;
#210 = DIRECTION ( 'NONE',  ( 3.664998382197393967E-31, 1.000000000000000000, 1.049697256412017316E-16 ) ) ;
#211 = CARTESIAN_POINT ( 'NONE',  ( 2.444036937190193601E-13, 1.199999999999990186, 70.00000000000000000 ) ) ;
#212 = AXIS2_PLACEMENT_3D ( 'NONE', #80, #148, #132 ) ;
#213 = CARTESIAN_POINT ( 'NONE',  ( 0.0000000000000000000, 0.0000000000000000000, 0.0000000000000000000 ) ) ;
#214 = APPROVAL_STATUS ( 'not_yet_approved' ) ;
#215 = PRODUCT_DEFINITION_FORMATION_WITH_SPECIFIED_SOURCE ( 'ANY', '', #13, .NOT_KNOWN. ) ;
#216 = ADVANCED_FACE ( 'NONE', ( #103, #116 ), #47, .T. ) ;
#217 = DATE_TIME_ROLE ( 'classification_date' ) ;
#218 = DATE_AND_TIME ( #105, #135 ) ;
#219 = SECURITY_CLASSIFICATION_LEVEL ( 'unclassified' ) ;
#220 = CIRCLE ( 'NONE', #46, 1.773999999999992694 ) ;
#221 = EDGE_CURVE ( 'NONE', #83, #83, #220, .T. ) ;
#222 = CARTESIAN_POINT ( 'NONE',  ( 2.444036937190193601E-13, -7.347880794884121511E-15, 70.00000000000000000 ) ) ;
#223 = DIRECTION ( 'NONE',  ( -3.491481338843133355E-15, -5.631935789682176946E-16, -1.000000000000000000 ) ) ;
#224 = EDGE_LOOP ( 'NONE', ( #109 ) ) ;
#225 = DIRECTION ( 'NONE',  ( 3.491481338843133355E-15, 5.631935789682176946E-16, 1.000000000000000000 ) ) ;
#226 = EDGE_LOOP ( 'NONE', ( #243 ) ) ;
#227 = AXIS2_PLACEMENT_3D ( 'NONE', #169, #25, #190 ) ;
#228 = DIRECTION ( 'NONE',  ( -3.491481338843133355E-15, -5.631935789682176946E-16, -1.000000000000000000 ) ) ;
#229 = VERTEX_POINT ( 'NONE', #211 ) ;
#230 = CARTESIAN_POINT ( 'NONE',  ( -1.892735826383161356E-31, 1.629662432702592589, -5.421010862427522170E-17 ) ) ;
#231 = CONICAL_SURFACE ( 'NONE', #30, 1.629662432702592589, 0.5235987755982971503 ) ;
#232 = FACE_OUTER_BOUND ( 'NONE', #99, .T. ) ;
#233 = PERSON_AND_ORGANIZATION ( #204, #149 ) ;
#234 = ADVANCED_BREP_SHAPE_REPRESENTATION ( '321258', ( #242, #160, #212 ), #106 ) ;
#235 = PERSON_AND_ORGANIZATION ( #204, #149 ) ;
#236 = COORDINATED_UNIVERSAL_TIME_OFFSET ( 1, 0, .AHEAD. ) ;
#237 = CC_DESIGN_PERSON_AND_ORGANIZATION_ASSIGNMENT ( #233, #196, ( #13 ) ) ;
#238 = CIRCLE ( 'NONE', #193, 1.629662432702592589 ) ;
#239 = DIRECTION ( 'NONE',  ( -3.491481338843133355E-15, 1.049697256412017316E-16, -1.000000000000000000 ) ) ;
#240 = EDGE_LOOP ( 'NONE', ( #207 ) ) ;
#241 = CC_DESIGN_DATE_AND_TIME_ASSIGNMENT ( #159, #217, ( #74 ) ) ;
#242 = MANIFOLD_SOLID_BREP ( 'Corps-Déplacer/Copier1[1]', #41 ) ;
#243 = ORIENTED_EDGE ( 'NONE', *, *, #158, .F. ) ;
ENDSEC;
END-ISO-10303-21;
