ISO-10303-21;
HEADER;
FILE_DESCRIPTION (( 'STEP AP203' ),
    '1' );
FILE_NAME ('321257.step',
    '2021-11-26T13:01:53',
    ( '' ),
    ( '' ),
    'SwSTEP 2.0',
    'SolidWorks 2019',
    '' );
FILE_SCHEMA (( 'CONFIG_CONTROL_DESIGN' ));
ENDSEC;

DATA;
#1 = PERSON_AND_ORGANIZATION ( #224, #136 ) ;
#2 = EDGE_LOOP ( 'NONE', ( #80 ) ) ;
#3 = ORIENTED_EDGE ( 'NONE', *, *, #201, .F. ) ;
#4 = EDGE_LOOP ( 'NONE', ( #117 ) ) ;
#5 = AXIS2_PLACEMENT_3D ( 'NONE', #179, #214, #116 ) ;
#6 = FACE_BOUND ( 'NONE', #135, .T. ) ;
#7 = DIRECTION ( 'NONE',  ( 0.0000000000000000000, 1.000000000000000000, 0.0000000000000000000 ) ) ;
#8 = DIRECTION ( 'NONE',  ( -3.491481338843133355E-15, -5.625343713787786769E-16, -1.000000000000000000 ) ) ;
#9 = AXIS2_PLACEMENT_3D ( 'NONE', #163, #88, #11 ) ;
#10 = DIRECTION ( 'NONE',  ( -3.483875535352843746E-30, 1.000000000000000000, -9.806237851762658973E-16 ) ) ;
#11 = DIRECTION ( 'NONE',  ( 0.0000000000000000000, 1.000000000000000000, 0.0000000000000000000 ) ) ;
#12 = VERTEX_POINT ( 'NONE', #123 ) ;
#13 = CC_DESIGN_APPROVAL ( #70, ( #150 ) ) ;
#14 = DATE_AND_TIME ( #71, #33 ) ;
#15 = CC_DESIGN_DATE_AND_TIME_ASSIGNMENT ( #109, #16, ( #150 ) ) ;
#16 = DATE_TIME_ROLE ( 'creation_date' ) ;
#17 = DIRECTION ( 'NONE',  ( 0.0000000000000000000, 0.0000000000000000000, 1.000000000000000000 ) ) ;
#18 =( NAMED_UNIT ( * ) PLANE_ANGLE_UNIT ( ) SI_UNIT ( $, .RADIAN. ) );
#19 = AXIS2_PLACEMENT_3D ( 'NONE', #165, #142, #42 ) ;
#20 = DATE_AND_TIME ( #76, #52 ) ;
#21 = SHAPE_DEFINITION_REPRESENTATION ( #63, #49 ) ;
#22 = EDGE_LOOP ( 'NONE', ( #60 ) ) ;
#23 = EDGE_CURVE ( 'NONE', #94, #94, #51, .T. ) ;
#24 = DIRECTION ( 'NONE',  ( -3.491481338843133355E-15, -5.625343713787786769E-16, -1.000000000000000000 ) ) ;
#25 = AXIS2_PLACEMENT_3D ( 'NONE', #127, #54, #74 ) ;
#26 = FACE_OUTER_BOUND ( 'NONE', #230, .T. ) ;
#27 = CC_DESIGN_PERSON_AND_ORGANIZATION_ASSIGNMENT ( #1, #56, ( #82 ) ) ;
#28 = EDGE_LOOP ( 'NONE', ( #81 ) ) ;
#29 = DIRECTION ( 'NONE',  ( 3.491481338843133355E-15, 5.625343713787786769E-16, 1.000000000000000000 ) ) ;
#30 = CC_DESIGN_APPROVAL ( #241, ( #78 ) ) ;
#31 = FACE_OUTER_BOUND ( 'NONE', #134, .T. ) ;
#32 = MECHANICAL_CONTEXT ( 'NONE', #191, 'mechanical' ) ;
#33 = LOCAL_TIME ( 14, 1, 53.00000000000000000, #184 ) ;
#34 = VERTEX_POINT ( 'NONE', #206 ) ;
#35 = CARTESIAN_POINT ( 'NONE',  ( 2.433562493173664138E-13, 1.499999999999990230, 69.70000000000001705 ) ) ;
#36 = DATE_AND_TIME ( #132, #221 ) ;
#37 = EDGE_CURVE ( 'NONE', #12, #12, #158, .T. ) ;
#38 = AXIS2_PLACEMENT_3D ( 'NONE', #75, #17, #69 ) ;
#39 = EDGE_LOOP ( 'NONE', ( #137 ) ) ;
#40 = DIRECTION ( 'NONE',  ( 0.0000000000000000000, 1.000000000000000000, 0.0000000000000000000 ) ) ;
#41 = DIRECTION ( 'NONE',  ( 3.491481338843133355E-15, -1.049697256412017316E-16, 1.000000000000000000 ) ) ;
#42 = DIRECTION ( 'NONE',  ( -1.964078260126858587E-30, 1.000000000000000000, -5.625343713787786769E-16 ) ) ;
#43 = EDGE_CURVE ( 'NONE', #34, #34, #194, .T. ) ;
#44 = FACE_BOUND ( 'NONE', #28, .T. ) ;
#45 = AXIS2_PLACEMENT_3D ( 'NONE', #236, #103, #233 ) ;
#46 = DIRECTION ( 'NONE',  ( -3.491481338843133355E-15, 1.049697256412017316E-16, -1.000000000000000000 ) ) ;
#47 = APPROVAL_ROLE ( '' ) ;
#48 = UNCERTAINTY_MEASURE_WITH_UNIT (LENGTH_MEASURE( 1.000000000000000082E-05 ), #185, 'distance_accuracy_value', 'NONE');
#49 = ADVANCED_BREP_SHAPE_REPRESENTATION ( '321257', ( #77, #157, #38 ), #118 ) ;
#50 = APPROVAL_STATUS ( 'not_yet_approved' ) ;
#51 = CIRCLE ( 'NONE', #168, 1.768999999999999684 ) ;
#52 = LOCAL_TIME ( 14, 1, 53.00000000000000000, #225 ) ;
#53 = APPROVAL_STATUS ( 'not_yet_approved' ) ;
#54 = DIRECTION ( 'NONE',  ( -3.491481338843133355E-15, 1.049697256412017316E-16, -1.000000000000000000 ) ) ;
#55 = ADVANCED_FACE ( 'NONE', ( #6, #215 ), #177, .T. ) ;
#56 = PERSON_AND_ORGANIZATION_ROLE ( 'classification_officer' ) ;
#57 = APPROVAL_ROLE ( '' ) ;
#58 = AXIS2_PLACEMENT_3D ( 'NONE', #182, #29, #68 ) ;
#59 = ORIENTED_EDGE ( 'NONE', *, *, #187, .T. ) ;
#60 = ORIENTED_EDGE ( 'NONE', *, *, #187, .F. ) ;
#61 = CC_DESIGN_PERSON_AND_ORGANIZATION_ASSIGNMENT ( #124, #240, ( #150 ) ) ;
#62 = FACE_OUTER_BOUND ( 'NONE', #138, .T. ) ;
#63 = PRODUCT_DEFINITION_SHAPE ( 'NONE', 'NONE',  #150 ) ;
#64 = DIRECTION ( 'NONE',  ( 3.491481338843133355E-15, 5.625343713787786769E-16, 1.000000000000000000 ) ) ;
#65 = CC_DESIGN_SECURITY_CLASSIFICATION ( #82, ( #78 ) ) ;
#66 = FACE_OUTER_BOUND ( 'NONE', #155, .T. ) ;
#67 = DIRECTION ( 'NONE',  ( -3.491481338843133355E-15, -5.625343713787786769E-16, -1.000000000000000000 ) ) ;
#68 = DIRECTION ( 'NONE',  ( 1.964078260126858587E-30, -1.000000000000000000, 5.625343713787786769E-16 ) ) ;
#69 = DIRECTION ( 'NONE',  ( 1.000000000000000000, 0.0000000000000000000, 0.0000000000000000000 ) ) ;
#70 = APPROVAL ( #50, 'UNSPECIFIED' ) ;
#71 = CALENDAR_DATE ( 2021, 26, 11 ) ;
#72 = VERTEX_POINT ( 'NONE', #35 ) ;
#73 = CIRCLE ( 'NONE', #25, 1.199999999999997513 ) ;
#74 = DIRECTION ( 'NONE',  ( 0.0000000000000000000, 1.000000000000000000, 0.0000000000000000000 ) ) ;
#75 = CARTESIAN_POINT ( 'NONE',  ( 0.0000000000000000000, 0.0000000000000000000, 0.0000000000000000000 ) ) ;
#76 = CALENDAR_DATE ( 2021, 26, 11 ) ;
#77 = MANIFOLD_SOLID_BREP ( 'Corps-Déplacer/Copier1[1]', #170 ) ;
#78 = PRODUCT_DEFINITION_FORMATION_WITH_SPECIFIED_SOURCE ( 'ANY', '', #183, .NOT_KNOWN. ) ;
#79 = EDGE_LOOP ( 'NONE', ( #213 ) ) ;
#80 = ORIENTED_EDGE ( 'NONE', *, *, #23, .F. ) ;
#81 = ORIENTED_EDGE ( 'NONE', *, *, #43, .T. ) ;
#82 = SECURITY_CLASSIFICATION ( '', '', #112 ) ;
#83 = ADVANCED_FACE ( 'NONE', ( #181, #235 ), #159, .T. ) ;
#84 = CARTESIAN_POINT ( 'NONE',  ( 2.433562493173664138E-13, -7.316389877191761450E-15, 69.70000000000001705 ) ) ;
#85 = CARTESIAN_POINT ( 'NONE',  ( 3.706769600226092421E-14, 5.972208081742337773E-15, 10.61661008749453217 ) ) ;
#86 = CYLINDRICAL_SURFACE ( 'NONE', #87, 1.768999999999995465 ) ;
#87 = AXIS2_PLACEMENT_3D ( 'NONE', #197, #24, #178 ) ;
#88 = DIRECTION ( 'NONE',  ( -3.491481338843133355E-15, 1.049697256412017316E-16, -1.000000000000000000 ) ) ;
#89 = VERTEX_POINT ( 'NONE', #92 ) ;
#90 = CIRCLE ( 'NONE', #115, 1.768999999999992578 ) ;
#91 = APPROVAL_DATE_TIME ( #14, #70 ) ;
#92 = CARTESIAN_POINT ( 'NONE',  ( 3.706769600226091790E-14, 1.768999999999998574, 10.61661008749453039 ) ) ;
#93 = CC_DESIGN_PERSON_AND_ORGANIZATION_ASSIGNMENT ( #190, #223, ( #78 ) ) ;
#94 = VERTEX_POINT ( 'NONE', #147 ) ;
#95 = DATE_TIME_ROLE ( 'classification_date' ) ;
#96 = ORIENTED_EDGE ( 'NONE', *, *, #37, .T. ) ;
#97 = ORIENTED_EDGE ( 'NONE', *, *, #161, .F. ) ;
#98 = EDGE_LOOP ( 'NONE', ( #3 ) ) ;
#99 = PLANE ( 'NONE',  #195 ) ;
#100 = LOCAL_TIME ( 14, 1, 53.00000000000000000, #202 ) ;
#101 = DIRECTION ( 'NONE',  ( -3.491481338843133355E-15, 1.049697256412017316E-16, -1.000000000000000000 ) ) ;
#102 = ADVANCED_FACE ( 'NONE', ( #105 ), #144, .T. ) ;
#103 = DIRECTION ( 'NONE',  ( -3.491481338843133355E-15, -5.625343713787786769E-16, -1.000000000000000000 ) ) ;
#104 = FACE_OUTER_BOUND ( 'NONE', #2, .T. ) ;
#105 = FACE_OUTER_BOUND ( 'NONE', #4, .T. ) ;
#106 = APPLICATION_PROTOCOL_DEFINITION ( 'international standard', 'config_control_design', 1994, #191 ) ;
#107 = PRODUCT_RELATED_PRODUCT_CATEGORY ( 'detail', '', ( #183 ) ) ;
#108 = APPLICATION_PROTOCOL_DEFINITION ( 'international standard', 'config_control_design', 1994, #205 ) ;
#109 = DATE_AND_TIME ( #148, #100 ) ;
#110 = CARTESIAN_POINT ( 'NONE',  ( 2.444036937190193601E-13, 1.199999999999990186, 70.00000000000000000 ) ) ;
#111 = FACE_OUTER_BOUND ( 'NONE', #228, .T. ) ;
#112 = SECURITY_CLASSIFICATION_LEVEL ( 'unclassified' ) ;
#113 = APPROVAL_DATE_TIME ( #36, #210 ) ;
#114 = ADVANCED_FACE ( 'NONE', ( #62 ), #139, .T. ) ;
#115 = AXIS2_PLACEMENT_3D ( 'NONE', #85, #8, #10 ) ;
#116 = DIRECTION ( 'NONE',  ( 0.0000000000000000000, 1.000000000000000000, 0.0000000000000000000 ) ) ;
#117 = ORIENTED_EDGE ( 'NONE', *, *, #23, .T. ) ;
#118 =( GEOMETRIC_REPRESENTATION_CONTEXT ( 3 ) GLOBAL_UNCERTAINTY_ASSIGNED_CONTEXT ( ( #48 ) ) GLOBAL_UNIT_ASSIGNED_CONTEXT ( ( #185, #18, #242 ) ) REPRESENTATION_CONTEXT ( 'NONE', 'WORKASPACE' ) );
#119 = FACE_OUTER_BOUND ( 'NONE', #98, .T. ) ;
#120 = DIRECTION ( 'NONE',  ( 0.0000000000000000000, 1.000000000000000000, 0.0000000000000000000 ) ) ;
#121 = DIRECTION ( 'NONE',  ( -1.959679988635968345E-30, 1.000000000000000000, -5.516008791616478046E-16 ) ) ;
#122 = AXIS2_PLACEMENT_3D ( 'NONE', #180, #64, #196 ) ;
#123 = CARTESIAN_POINT ( 'NONE',  ( -1.892735826383164860E-31, 1.624662432702592474, -5.421010862427522170E-17 ) ) ;
#124 = PERSON_AND_ORGANIZATION ( #224, #136 ) ;
#125 = ADVANCED_FACE ( 'NONE', ( #26 ), #99, .T. ) ;
#126 = PERSON_AND_ORGANIZATION_ROLE ( 'design_owner' ) ;
#127 = CARTESIAN_POINT ( 'NONE',  ( 2.444036937190193601E-13, -7.347880794884121511E-15, 70.00000000000000000 ) ) ;
#128 = DESIGN_CONTEXT ( 'detailed design', #205, 'design' ) ;
#129 = PERSON_AND_ORGANIZATION ( #224, #136 ) ;
#130 = CLOSED_SHELL ( 'NONE', ( #114, #171, #83, #192 ) ) ;
#131 = AXIS2_PLACEMENT_3D ( 'NONE', #198, #67, #121 ) ;
#132 = CALENDAR_DATE ( 2021, 26, 11 ) ;
#133 = APPROVAL_ROLE ( '' ) ;
#134 = EDGE_LOOP ( 'NONE', ( #59 ) ) ;
#135 = EDGE_LOOP ( 'NONE', ( #217 ) ) ;
#136 = ORGANIZATION ( 'UNSPECIFIED', 'UNSPECIFIED', '' ) ;
#137 = ORIENTED_EDGE ( 'NONE', *, *, #161, .T. ) ;
#138 = EDGE_LOOP ( 'NONE', ( #97 ) ) ;
#139 = PLANE ( 'NONE',  #58 ) ;
#140 = FACE_OUTER_BOUND ( 'NONE', #39, .T. ) ;
#141 = AXIS2_PLACEMENT_3D ( 'NONE', #234, #101, #7 ) ;
#142 = DIRECTION ( 'NONE',  ( -3.491481338843133355E-15, -5.625343713787786769E-16, -1.000000000000000000 ) ) ;
#143 = PLANE ( 'NONE',  #19 ) ;
#144 = PLANE ( 'NONE',  #145 ) ;
#145 = AXIS2_PLACEMENT_3D ( 'NONE', #231, #199, #218 ) ;
#146 = ADVANCED_FACE ( 'NONE', ( #44, #104 ), #243, .T. ) ;
#147 = CARTESIAN_POINT ( 'NONE',  ( 3.706769600226091790E-14, 1.768999999999998574, 10.61661008749453039 ) ) ;
#148 = CALENDAR_DATE ( 2021, 26, 11 ) ;
#149 = CIRCLE ( 'NONE', #9, 1.499999999999997558 ) ;
#150 = PRODUCT_DEFINITION ( 'UNKNOWN', '', #78, #128 ) ;
#151 = APPROVAL_DATE_TIME ( #172, #241 ) ;
#152 = APPROVAL_PERSON_ORGANIZATION ( #129, #210, #57 ) ;
#153 = COORDINATED_UNIVERSAL_TIME_OFFSET ( 1, 0, .AHEAD. ) ;
#154 = CC_DESIGN_PERSON_AND_ORGANIZATION_ASSIGNMENT ( #203, #126, ( #183 ) ) ;
#155 = EDGE_LOOP ( 'NONE', ( #96 ) ) ;
#156 = EDGE_LOOP ( 'NONE', ( #176 ) ) ;
#157 = MANIFOLD_SOLID_BREP ( 'Corps-Déplacer/Copier1[2]', #130 ) ;
#158 = CIRCLE ( 'NONE', #45, 1.624662432702592474 ) ;
#159 = CONICAL_SURFACE ( 'NONE', #122, 1.624662432702592474, 0.5235987755982971503 ) ;
#160 = DIRECTION ( 'NONE',  ( -3.491481338843133355E-15, 1.049697256412017316E-16, -1.000000000000000000 ) ) ;
#161 = EDGE_CURVE ( 'NONE', #89, #89, #90, .T. ) ;
#162 = CARTESIAN_POINT ( 'NONE',  ( 3.706769600226091790E-14, -1.114422648123915601E-15, 10.61661008749453039 ) ) ;
#163 = CARTESIAN_POINT ( 'NONE',  ( 2.433562493173664138E-13, -7.316389877191761450E-15, 69.70000000000001705 ) ) ;
#164 = LOCAL_TIME ( 14, 1, 53.00000000000000000, #153 ) ;
#165 = CARTESIAN_POINT ( 'NONE',  ( -1.690118873377146706E-30, 1.624662432702592474, -4.840692844536726302E-16 ) ) ;
#166 = DIRECTION ( 'NONE',  ( -3.664998382197393967E-31, -1.000000000000000000, -1.049697256412017316E-16 ) ) ;
#167 = VERTEX_POINT ( 'NONE', #239 ) ;
#168 = AXIS2_PLACEMENT_3D ( 'NONE', #162, #193, #40 ) ;
#169 = CARTESIAN_POINT ( 'NONE',  ( 0.0000000000000000000, 0.0000000000000000000, 0.0000000000000000000 ) ) ;
#170 = CLOSED_SHELL ( 'NONE', ( #125, #55, #229, #146, #102 ) ) ;
#171 = ADVANCED_FACE ( 'NONE', ( #140, #119 ), #86, .T. ) ;
#172 = DATE_AND_TIME ( #227, #164 ) ;
#173 = COORDINATED_UNIVERSAL_TIME_OFFSET ( 1, 0, .AHEAD. ) ;
#174 = APPROVAL_PERSON_ORGANIZATION ( #220, #241, #133 ) ;
#175 = ORIENTED_EDGE ( 'NONE', *, *, #237, .F. ) ;
#176 = ORIENTED_EDGE ( 'NONE', *, *, #201, .T. ) ;
#177 = CONICAL_SURFACE ( 'NONE', #188, 1.499999999999997558, 0.7853981633974573828 ) ;
#178 = DIRECTION ( 'NONE',  ( -1.964078260126858236E-30, 1.000000000000000000, -5.625343713787786769E-16 ) ) ;
#179 = CARTESIAN_POINT ( 'NONE',  ( 3.869445280877825183E-14, -1.163330317703974635E-15, 11.08253175473057617 ) ) ;
#180 = CARTESIAN_POINT ( 'NONE',  ( 3.001690581477660833E-30, 4.836211225131799967E-31, 8.597183516587949157E-16 ) ) ;
#181 = FACE_OUTER_BOUND ( 'NONE', #156, .T. ) ;
#182 = CARTESIAN_POINT ( 'NONE',  ( 3.706769600226091790E-14, 5.972208081742336196E-15, 10.61661008749453039 ) ) ;
#183 = PRODUCT ( '321257', '321257', '', ( #32 ) ) ;
#184 = COORDINATED_UNIVERSAL_TIME_OFFSET ( 1, 0, .AHEAD. ) ;
#185 =( LENGTH_UNIT ( ) NAMED_UNIT ( * ) SI_UNIT ( .MILLI., .METRE. ) );
#186 = VERTEX_POINT ( 'NONE', #110 ) ;
#187 = EDGE_CURVE ( 'NONE', #72, #72, #149, .T. ) ;
#188 = AXIS2_PLACEMENT_3D ( 'NONE', #84, #160, #120 ) ;
#189 = PERSON_AND_ORGANIZATION ( #224, #136 ) ;
#190 = PERSON_AND_ORGANIZATION ( #224, #136 ) ;
#191 = APPLICATION_CONTEXT ( 'configuration controlled 3d designs of mechanical parts and assemblies' ) ;
#192 = ADVANCED_FACE ( 'NONE', ( #66 ), #143, .T. ) ;
#193 = DIRECTION ( 'NONE',  ( -3.491481338843133355E-15, 1.049697256412017316E-16, -1.000000000000000000 ) ) ;
#194 = CIRCLE ( 'NONE', #5, 1.499999999999992673 ) ;
#195 = AXIS2_PLACEMENT_3D ( 'NONE', #216, #41, #166 ) ;
#196 = DIRECTION ( 'NONE',  ( 1.964078260126858236E-30, -1.000000000000000000, 5.625343713787785783E-16 ) ) ;
#197 = CARTESIAN_POINT ( 'NONE',  ( 0.0000000000000000000, 0.0000000000000000000, 0.0000000000000000000 ) ) ;
#198 = CARTESIAN_POINT ( 'NONE',  ( 8.728703347107866915E-16, 1.406335928446951869E-16, 0.2500000000000009437 ) ) ;
#199 = DIRECTION ( 'NONE',  ( -3.491481338843133355E-15, 1.049697256412017316E-16, -1.000000000000000000 ) ) ;
#200 = CYLINDRICAL_SURFACE ( 'NONE', #226, 1.499999999999995337 ) ;
#201 = EDGE_CURVE ( 'NONE', #167, #167, #238, .T. ) ;
#202 = COORDINATED_UNIVERSAL_TIME_OFFSET ( 1, 0, .AHEAD. ) ;
#203 = PERSON_AND_ORGANIZATION ( #224, #136 ) ;
#204 = CC_DESIGN_DATE_AND_TIME_ASSIGNMENT ( #20, #95, ( #82 ) ) ;
#205 = APPLICATION_CONTEXT ( 'configuration controlled 3d designs of mechanical parts and assemblies' ) ;
#206 = CARTESIAN_POINT ( 'NONE',  ( 3.869445280877825183E-14, 1.499999999999991562, 11.08253175473057617 ) ) ;
#207 = APPROVAL_STATUS ( 'not_yet_approved' ) ;
#208 = APPROVAL_PERSON_ORGANIZATION ( #219, #70, #47 ) ;
#209 = PERSON_AND_ORGANIZATION_ROLE ( 'creator' ) ;
#210 = APPROVAL ( #207, 'UNSPECIFIED' ) ;
#211 = CC_DESIGN_APPROVAL ( #210, ( #82 ) ) ;
#212 = ORIENTED_EDGE ( 'NONE', *, *, #43, .F. ) ;
#213 = ORIENTED_EDGE ( 'NONE', *, *, #37, .F. ) ;
#214 = DIRECTION ( 'NONE',  ( -3.491481338843133355E-15, 1.049697256412017316E-16, -1.000000000000000000 ) ) ;
#215 = FACE_OUTER_BOUND ( 'NONE', #22, .T. ) ;
#216 = CARTESIAN_POINT ( 'NONE',  ( 2.444036937190193601E-13, -7.347880794884121511E-15, 70.00000000000000000 ) ) ;
#217 = ORIENTED_EDGE ( 'NONE', *, *, #237, .T. ) ;
#218 = DIRECTION ( 'NONE',  ( 3.664998382197393967E-31, 1.000000000000000000, 1.049697256412017316E-16 ) ) ;
#219 = PERSON_AND_ORGANIZATION ( #224, #136 ) ;
#220 = PERSON_AND_ORGANIZATION ( #224, #136 ) ;
#221 = LOCAL_TIME ( 14, 1, 53.00000000000000000, #173 ) ;
#222 = DIRECTION ( 'NONE',  ( 3.664998382197393967E-31, 1.000000000000000000, 1.049697256412017316E-16 ) ) ;
#223 = PERSON_AND_ORGANIZATION_ROLE ( 'design_supplier' ) ;
#224 = PERSON ( 'UNSPECIFIED', 'UNSPECIFIED', 'UNSPECIFIED', ('UNSPECIFIED'), ('UNSPECIFIED'), ('UNSPECIFIED') ) ;
#225 = COORDINATED_UNIVERSAL_TIME_OFFSET ( 1, 0, .AHEAD. ) ;
#226 = AXIS2_PLACEMENT_3D ( 'NONE', #169, #46, #222 ) ;
#227 = CALENDAR_DATE ( 2021, 26, 11 ) ;
#228 = EDGE_LOOP ( 'NONE', ( #212 ) ) ;
#229 = ADVANCED_FACE ( 'NONE', ( #31, #111 ), #200, .T. ) ;
#230 = EDGE_LOOP ( 'NONE', ( #175 ) ) ;
#231 = CARTESIAN_POINT ( 'NONE',  ( 3.706769600226091790E-14, 1.768999999999998574, 10.61661008749453039 ) ) ;
#232 = CC_DESIGN_PERSON_AND_ORGANIZATION_ASSIGNMENT ( #189, #209, ( #78 ) ) ;
#233 = DIRECTION ( 'NONE',  ( -1.964078260126858937E-30, 1.000000000000000000, -5.625343713787785783E-16 ) ) ;
#234 = CARTESIAN_POINT ( 'NONE',  ( 3.706769600226091790E-14, -1.114422648123915601E-15, 10.61661008749453039 ) ) ;
#235 = FACE_BOUND ( 'NONE', #79, .T. ) ;
#236 = CARTESIAN_POINT ( 'NONE',  ( 3.001690581477660833E-30, 4.836211225131799967E-31, 8.597183516587949157E-16 ) ) ;
#237 = EDGE_CURVE ( 'NONE', #186, #186, #73, .T. ) ;
#238 = CIRCLE ( 'NONE', #131, 1.768999999999998352 ) ;
#239 = CARTESIAN_POINT ( 'NONE',  ( 8.728703347107831416E-16, 1.768999999999998574, 0.2499999999999999445 ) ) ;
#240 = PERSON_AND_ORGANIZATION_ROLE ( 'creator' ) ;
#241 = APPROVAL ( #53, 'UNSPECIFIED' ) ;
#242 =( NAMED_UNIT ( * ) SI_UNIT ( $, .STERADIAN. ) SOLID_ANGLE_UNIT ( ) );
#243 = CONICAL_SURFACE ( 'NONE', #141, 1.768999999999999684, 0.5235987755982941527 ) ;
ENDSEC;
END-ISO-10303-21;
