ISO-10303-21;
HEADER;
FILE_DESCRIPTION (( 'STEP AP203' ),
    '1' );
FILE_NAME ('321256.step',
    '2021-11-26T13:01:52',
    ( '' ),
    ( '' ),
    'SwSTEP 2.0',
    'SolidWorks 2019',
    '' );
FILE_SCHEMA (( 'CONFIG_CONTROL_DESIGN' ));
ENDSEC;

DATA;
#1 = APPLICATION_PROTOCOL_DEFINITION ( 'international standard', 'config_control_design', 1994, #140 ) ;
#2 = DESIGN_CONTEXT ( 'detailed design', #140, 'design' ) ;
#3 = ORIENTED_EDGE ( 'NONE', *, *, #28, .T. ) ;
#4 = CC_DESIGN_PERSON_AND_ORGANIZATION_ASSIGNMENT ( #114, #42, ( #23 ) ) ;
#5 = DIRECTION ( 'NONE',  ( 0.0000000000000000000, 1.000000000000000000, 0.0000000000000000000 ) ) ;
#6 = AXIS2_PLACEMENT_3D ( 'NONE', #136, #156, #85 ) ;
#7 = ORIENTED_EDGE ( 'NONE', *, *, #63, .F. ) ;
#8 = DIRECTION ( 'NONE',  ( -3.491481338843133355E-15, -5.618762383794442825E-16, -1.000000000000000000 ) ) ;
#9 = CC_DESIGN_DATE_AND_TIME_ASSIGNMENT ( #19, #190, ( #27 ) ) ;
#10 = AXIS2_PLACEMENT_3D ( 'NONE', #104, #193, #135 ) ;
#11 = ORGANIZATION ( 'UNSPECIFIED', 'UNSPECIFIED', '' ) ;
#12 = FACE_OUTER_BOUND ( 'NONE', #176, .T. ) ;
#13 = DIRECTION ( 'NONE',  ( 3.491481338843133355E-15, -1.049697256412017316E-16, 1.000000000000000000 ) ) ;
#14 = PRODUCT_DEFINITION_SHAPE ( 'NONE', 'NONE',  #102 ) ;
#15 = CARTESIAN_POINT ( 'NONE',  ( 3.869445280877825183E-14, -1.163330317703974635E-15, 11.08253175473057617 ) ) ;
#16 = FACE_BOUND ( 'NONE', #174, .T. ) ;
#17 = PERSON_AND_ORGANIZATION ( #74, #11 ) ;
#18 = AXIS2_PLACEMENT_3D ( 'NONE', #237, #198, #202 ) ;
#19 = DATE_AND_TIME ( #186, #86 ) ;
#20 = EDGE_CURVE ( 'NONE', #217, #217, #162, .T. ) ;
#21 = APPROVAL_ROLE ( '' ) ;
#22 = DIRECTION ( 'NONE',  ( 1.000000000000000000, 0.0000000000000000000, 0.0000000000000000000 ) ) ;
#23 = PRODUCT_DEFINITION_FORMATION_WITH_SPECIFIED_SOURCE ( 'ANY', '', #96, .NOT_KNOWN. ) ;
#24 = DIRECTION ( 'NONE',  ( -3.491481338843133355E-15, -5.618762383794442825E-16, -1.000000000000000000 ) ) ;
#25 = APPROVAL ( #77, 'UNSPECIFIED' ) ;
#26 = EDGE_LOOP ( 'NONE', ( #84 ) ) ;
#27 = SECURITY_CLASSIFICATION ( '', '', #128 ) ;
#28 = EDGE_CURVE ( 'NONE', #51, #51, #57, .T. ) ;
#29 = ORIENTED_EDGE ( 'NONE', *, *, #63, .T. ) ;
#30 = ORIENTED_EDGE ( 'NONE', *, *, #179, .F. ) ;
#31 = CARTESIAN_POINT ( 'NONE',  ( 3.709793311762369925E-14, -1.115331712614251325E-15, 10.62527034153237615 ) ) ;
#32 = ADVANCED_FACE ( 'NONE', ( #66, #212 ), #139, .T. ) ;
#33 = DIRECTION ( 'NONE',  ( 0.0000000000000000000, 1.000000000000000000, 0.0000000000000000000 ) ) ;
#34 = AXIS2_PLACEMENT_3D ( 'NONE', #47, #147, #185 ) ;
#35 = DIRECTION ( 'NONE',  ( 0.0000000000000000000, 1.000000000000000000, 0.0000000000000000000 ) ) ;
#36 = PERSON_AND_ORGANIZATION ( #74, #11 ) ;
#37 = DATE_AND_TIME ( #149, #205 ) ;
#38 = CONICAL_SURFACE ( 'NONE', #103, 1.763999999999999790, 0.5235987755982948189 ) ;
#39 = APPROVAL_STATUS ( 'not_yet_approved' ) ;
#40 = ADVANCED_FACE ( 'NONE', ( #64, #101 ), #177, .T. ) ;
#41 = SHAPE_DEFINITION_REPRESENTATION ( #14, #94 ) ;
#42 = PERSON_AND_ORGANIZATION_ROLE ( 'creator' ) ;
#43 = UNCERTAINTY_MEASURE_WITH_UNIT (LENGTH_MEASURE( 1.000000000000000082E-05 ), #178, 'distance_accuracy_value', 'NONE');
#44 = AXIS2_PLACEMENT_3D ( 'NONE', #175, #65, #208 ) ;
#45 = EDGE_LOOP ( 'NONE', ( #118 ) ) ;
#46 = ORIENTED_EDGE ( 'NONE', *, *, #188, .F. ) ;
#47 = CARTESIAN_POINT ( 'NONE',  ( -1.683347799708491305E-30, 1.619662432702592580, -4.821299718778539134E-16 ) ) ;
#48 = ORIENTED_EDGE ( 'NONE', *, *, #188, .T. ) ;
#49 = AXIS2_PLACEMENT_3D ( 'NONE', #189, #59, #22 ) ;
#50 = CARTESIAN_POINT ( 'NONE',  ( 8.728703347107831416E-16, 1.763999999999998680, 0.2499999999999999445 ) ) ;
#51 = VERTEX_POINT ( 'NONE', #123 ) ;
#52 = AXIS2_PLACEMENT_3D ( 'NONE', #229, #8, #62 ) ;
#53 = PERSON_AND_ORGANIZATION ( #74, #11 ) ;
#54 = DATE_AND_TIME ( #222, #131 ) ;
#55 = PERSON_AND_ORGANIZATION_ROLE ( 'classification_officer' ) ;
#56 = CC_DESIGN_PERSON_AND_ORGANIZATION_ASSIGNMENT ( #36, #55, ( #27 ) ) ;
#57 = CIRCLE ( 'NONE', #52, 1.619662432702592580 ) ;
#58 = AXIS2_PLACEMENT_3D ( 'NONE', #73, #111, #72 ) ;
#59 = DIRECTION ( 'NONE',  ( 0.0000000000000000000, 0.0000000000000000000, 1.000000000000000000 ) ) ;
#60 = ADVANCED_FACE ( 'NONE', ( #227 ), #105, .T. ) ;
#61 = LOCAL_TIME ( 14, 1, 52.00000000000000000, #93 ) ;
#62 = DIRECTION ( 'NONE',  ( -1.961780401041205706E-30, 1.000000000000000000, -5.618762383794442825E-16 ) ) ;
#63 = EDGE_CURVE ( 'NONE', #166, #166, #243, .T. ) ;
#64 = FACE_BOUND ( 'NONE', #192, .T. ) ;
#65 = DIRECTION ( 'NONE',  ( 3.491481338843133355E-15, 5.618762383794442825E-16, 1.000000000000000000 ) ) ;
#66 = FACE_OUTER_BOUND ( 'NONE', #141, .T. ) ;
#67 = ORIENTED_EDGE ( 'NONE', *, *, #20, .F. ) ;
#68 = CC_DESIGN_PERSON_AND_ORGANIZATION_ASSIGNMENT ( #167, #239, ( #96 ) ) ;
#69 =( NAMED_UNIT ( * ) PLANE_ANGLE_UNIT ( ) SI_UNIT ( $, .RADIAN. ) );
#70 = CYLINDRICAL_SURFACE ( 'NONE', #18, 1.499999999999995337 ) ;
#71 = CARTESIAN_POINT ( 'NONE',  ( 3.709793311762369925E-14, -1.115331712614251325E-15, 10.62527034153237615 ) ) ;
#72 = DIRECTION ( 'NONE',  ( 1.961780401041206057E-30, -1.000000000000000000, 5.618762383794442825E-16 ) ) ;
#73 = CARTESIAN_POINT ( 'NONE',  ( 2.988148434140350732E-30, 4.808760061855339696E-31, 8.558397265071572849E-16 ) ) ;
#74 = PERSON ( 'UNSPECIFIED', 'UNSPECIFIED', 'UNSPECIFIED', ('UNSPECIFIED'), ('UNSPECIFIED'), ('UNSPECIFIED') ) ;
#75 = ADVANCED_FACE ( 'NONE', ( #211 ), #232, .T. ) ;
#76 = COORDINATED_UNIVERSAL_TIME_OFFSET ( 1, 0, .AHEAD. ) ;
#77 = APPROVAL_STATUS ( 'not_yet_approved' ) ;
#78 = MANIFOLD_SOLID_BREP ( 'Corps-Déplacer/Copier1[1]', #168 ) ;
#79 = PERSON_AND_ORGANIZATION_ROLE ( 'design_supplier' ) ;
#80 = MANIFOLD_SOLID_BREP ( 'Corps-Déplacer/Copier1[2]', #157 ) ;
#81 = EDGE_LOOP ( 'NONE', ( #82 ) ) ;
#82 = ORIENTED_EDGE ( 'NONE', *, *, #146, .F. ) ;
#83 = CARTESIAN_POINT ( 'NONE',  ( 2.433562493173664138E-13, -7.316389877191761450E-15, 69.70000000000001705 ) ) ;
#84 = ORIENTED_EDGE ( 'NONE', *, *, #20, .T. ) ;
#85 = DIRECTION ( 'NONE',  ( 0.0000000000000000000, 1.000000000000000000, 0.0000000000000000000 ) ) ;
#86 = LOCAL_TIME ( 14, 1, 52.00000000000000000, #113 ) ;
#87 = CIRCLE ( 'NONE', #214, 1.763999999999999790 ) ;
#88 = FACE_OUTER_BOUND ( 'NONE', #152, .T. ) ;
#89 = CARTESIAN_POINT ( 'NONE',  ( 2.433562493173664138E-13, 1.499999999999990230, 69.70000000000001705 ) ) ;
#90 = DIRECTION ( 'NONE',  ( -3.664998382197393967E-31, -1.000000000000000000, -1.049697256412017316E-16 ) ) ;
#91 = VERTEX_POINT ( 'NONE', #165 ) ;
#92 = PLANE ( 'NONE',  #138 ) ;
#93 = COORDINATED_UNIVERSAL_TIME_OFFSET ( 1, 0, .AHEAD. ) ;
#94 = ADVANCED_BREP_SHAPE_REPRESENTATION ( '321256', ( #78, #80, #49 ), #133 ) ;
#95 = PRODUCT_RELATED_PRODUCT_CATEGORY ( 'detail', '', ( #96 ) ) ;
#96 = PRODUCT ( '321256', '321256', '', ( #224 ) ) ;
#97 = DATE_AND_TIME ( #130, #61 ) ;
#98 = CC_DESIGN_PERSON_AND_ORGANIZATION_ASSIGNMENT ( #172, #204, ( #102 ) ) ;
#99 = APPLICATION_PROTOCOL_DEFINITION ( 'international standard', 'config_control_design', 1994, #126 ) ;
#100 = ORIENTED_EDGE ( 'NONE', *, *, #127, .T. ) ;
#101 = FACE_OUTER_BOUND ( 'NONE', #116, .T. ) ;
#102 = PRODUCT_DEFINITION ( 'UNKNOWN', '', #23, #2 ) ;
#103 = AXIS2_PLACEMENT_3D ( 'NONE', #31, #235, #35 ) ;
#104 = CARTESIAN_POINT ( 'NONE',  ( 0.0000000000000000000, 0.0000000000000000000, 0.0000000000000000000 ) ) ;
#105 = PLANE ( 'NONE',  #44 ) ;
#106 = ADVANCED_FACE ( 'NONE', ( #110 ), #92, .T. ) ;
#107 = ORIENTED_EDGE ( 'NONE', *, *, #146, .T. ) ;
#108 = CARTESIAN_POINT ( 'NONE',  ( 2.444036937190193601E-13, 1.199999999999990186, 70.00000000000000000 ) ) ;
#109 = DIRECTION ( 'NONE',  ( -3.491481338843133355E-15, 1.049697256412017316E-16, -1.000000000000000000 ) ) ;
#110 = FACE_OUTER_BOUND ( 'NONE', #159, .T. ) ;
#111 = DIRECTION ( 'NONE',  ( 3.491481338843133355E-15, 5.618762383794442825E-16, 1.000000000000000000 ) ) ;
#112 = CARTESIAN_POINT ( 'NONE',  ( 3.869445280877825183E-14, 1.499999999999991562, 11.08253175473057617 ) ) ;
#113 = COORDINATED_UNIVERSAL_TIME_OFFSET ( 1, 0, .AHEAD. ) ;
#114 = PERSON_AND_ORGANIZATION ( #74, #11 ) ;
#115 = APPROVAL_STATUS ( 'not_yet_approved' ) ;
#116 = EDGE_LOOP ( 'NONE', ( #7 ) ) ;
#117 = ORIENTED_EDGE ( 'NONE', *, *, #127, .F. ) ;
#118 = ORIENTED_EDGE ( 'NONE', *, *, #28, .F. ) ;
#119 = VERTEX_POINT ( 'NONE', #108 ) ;
#120 =( NAMED_UNIT ( * ) SI_UNIT ( $, .STERADIAN. ) SOLID_ANGLE_UNIT ( ) );
#121 = AXIS2_PLACEMENT_3D ( 'NONE', #15, #197, #145 ) ;
#122 = FACE_OUTER_BOUND ( 'NONE', #26, .T. ) ;
#123 = CARTESIAN_POINT ( 'NONE',  ( -1.892735826383158072E-31, 1.619662432702592580, -5.421010862427522170E-17 ) ) ;
#124 = FACE_BOUND ( 'NONE', #45, .T. ) ;
#125 = CIRCLE ( 'NONE', #121, 1.499999999999992673 ) ;
#126 = APPLICATION_CONTEXT ( 'configuration controlled 3d designs of mechanical parts and assemblies' ) ;
#127 = EDGE_CURVE ( 'NONE', #233, #233, #125, .T. ) ;
#128 = SECURITY_CLASSIFICATION_LEVEL ( 'unclassified' ) ;
#129 = APPROVAL_DATE_TIME ( #203, #134 ) ;
#130 = CALENDAR_DATE ( 2021, 26, 11 ) ;
#131 = LOCAL_TIME ( 14, 1, 52.00000000000000000, #76 ) ;
#132 = APPROVAL_ROLE ( '' ) ;
#133 =( GEOMETRIC_REPRESENTATION_CONTEXT ( 3 ) GLOBAL_UNCERTAINTY_ASSIGNED_CONTEXT ( ( #43 ) ) GLOBAL_UNIT_ASSIGNED_CONTEXT ( ( #178, #69, #120 ) ) REPRESENTATION_CONTEXT ( 'NONE', 'WORKASPACE' ) );
#134 = APPROVAL ( #39, 'UNSPECIFIED' ) ;
#135 = DIRECTION ( 'NONE',  ( -1.961780401041205706E-30, 1.000000000000000000, -5.618762383794443811E-16 ) ) ;
#136 = CARTESIAN_POINT ( 'NONE',  ( 2.433562493173664138E-13, -7.316389877191761450E-15, 69.70000000000001705 ) ) ;
#137 = ADVANCED_FACE ( 'NONE', ( #122, #124 ), #158, .T. ) ;
#138 = AXIS2_PLACEMENT_3D ( 'NONE', #181, #13, #90 ) ;
#139 = CYLINDRICAL_SURFACE ( 'NONE', #10, 1.763999999999995572 ) ;
#140 = APPLICATION_CONTEXT ( 'configuration controlled 3d designs of mechanical parts and assemblies' ) ;
#141 = EDGE_LOOP ( 'NONE', ( #107 ) ) ;
#142 = CARTESIAN_POINT ( 'NONE',  ( 3.709793311762370556E-14, 1.763999999999998680, 10.62527034153237793 ) ) ;
#143 = AXIS2_PLACEMENT_3D ( 'NONE', #219, #109, #183 ) ;
#144 = PLANE ( 'NONE',  #195 ) ;
#145 = DIRECTION ( 'NONE',  ( 0.0000000000000000000, 1.000000000000000000, 0.0000000000000000000 ) ) ;
#146 = EDGE_CURVE ( 'NONE', #91, #91, #226, .T. ) ;
#147 = DIRECTION ( 'NONE',  ( -3.491481338843133355E-15, -5.618762383794442825E-16, -1.000000000000000000 ) ) ;
#148 = APPROVAL_PERSON_ORGANIZATION ( #151, #134, #169 ) ;
#149 = CALENDAR_DATE ( 2021, 26, 11 ) ;
#150 = DATE_TIME_ROLE ( 'creation_date' ) ;
#151 = PERSON_AND_ORGANIZATION ( #74, #11 ) ;
#152 = EDGE_LOOP ( 'NONE', ( #48 ) ) ;
#153 = AXIS2_PLACEMENT_3D ( 'NONE', #83, #228, #5 ) ;
#154 = DIRECTION ( 'NONE',  ( -1.965234637129834076E-30, 1.000000000000000000, -5.531643737170945417E-16 ) ) ;
#155 = EDGE_LOOP ( 'NONE', ( #46 ) ) ;
#156 = DIRECTION ( 'NONE',  ( -3.491481338843133355E-15, 1.049697256412017316E-16, -1.000000000000000000 ) ) ;
#157 = CLOSED_SHELL ( 'NONE', ( #60, #32, #137, #75 ) ) ;
#158 = CONICAL_SURFACE ( 'NONE', #58, 1.619662432702592580, 0.5235987755982971503 ) ;
#159 = EDGE_LOOP ( 'NONE', ( #30 ) ) ;
#160 = CARTESIAN_POINT ( 'NONE',  ( 3.709793311762369925E-14, 1.763999999999998680, 10.62527034153237615 ) ) ;
#161 = DIRECTION ( 'NONE',  ( -3.491481338843133355E-15, -5.618762383794442825E-16, -1.000000000000000000 ) ) ;
#162 = CIRCLE ( 'NONE', #170, 1.763999999999998458 ) ;
#163 = DIRECTION ( 'NONE',  ( -3.491481338843133355E-15, 1.049697256412017316E-16, -1.000000000000000000 ) ) ;
#164 = APPROVAL_PERSON_ORGANIZATION ( #223, #201, #132 ) ;
#165 = CARTESIAN_POINT ( 'NONE',  ( 3.709793311762369925E-14, 1.763999999999998680, 10.62527034153237615 ) ) ;
#166 = VERTEX_POINT ( 'NONE', #89 ) ;
#167 = PERSON_AND_ORGANIZATION ( #74, #11 ) ;
#168 = CLOSED_SHELL ( 'NONE', ( #106, #40, #216, #230, #182 ) ) ;
#169 = APPROVAL_ROLE ( '' ) ;
#170 = AXIS2_PLACEMENT_3D ( 'NONE', #173, #24, #154 ) ;
#171 = CC_DESIGN_APPROVAL ( #201, ( #27 ) ) ;
#172 = PERSON_AND_ORGANIZATION ( #74, #11 ) ;
#173 = CARTESIAN_POINT ( 'NONE',  ( 8.728703347107866915E-16, 1.404690595948615883E-16, 0.2500000000000009437 ) ) ;
#174 = EDGE_LOOP ( 'NONE', ( #100 ) ) ;
#175 = CARTESIAN_POINT ( 'NONE',  ( 3.709793311762370556E-14, 5.970086931264886107E-15, 10.62527034153237793 ) ) ;
#176 = EDGE_LOOP ( 'NONE', ( #117 ) ) ;
#177 = CONICAL_SURFACE ( 'NONE', #153, 1.499999999999997558, 0.7853981633974573828 ) ;
#178 =( LENGTH_UNIT ( ) NAMED_UNIT ( * ) SI_UNIT ( .MILLI., .METRE. ) );
#179 = EDGE_CURVE ( 'NONE', #119, #119, #187, .T. ) ;
#180 = DIRECTION ( 'NONE',  ( -3.491481338843133355E-15, 1.049697256412017316E-16, -1.000000000000000000 ) ) ;
#181 = CARTESIAN_POINT ( 'NONE',  ( 2.444036937190193601E-13, -7.347880794884121511E-15, 70.00000000000000000 ) ) ;
#182 = ADVANCED_FACE ( 'NONE', ( #88 ), #144, .T. ) ;
#183 = DIRECTION ( 'NONE',  ( 0.0000000000000000000, 1.000000000000000000, 0.0000000000000000000 ) ) ;
#184 = AXIS2_PLACEMENT_3D ( 'NONE', #199, #161, #215 ) ;
#185 = DIRECTION ( 'NONE',  ( -1.961780401041205706E-30, 1.000000000000000000, -5.618762383794442825E-16 ) ) ;
#186 = CALENDAR_DATE ( 2021, 26, 11 ) ;
#187 = CIRCLE ( 'NONE', #143, 1.199999999999997513 ) ;
#188 = EDGE_CURVE ( 'NONE', #200, #200, #87, .T. ) ;
#189 = CARTESIAN_POINT ( 'NONE',  ( 0.0000000000000000000, 0.0000000000000000000, 0.0000000000000000000 ) ) ;
#190 = DATE_TIME_ROLE ( 'classification_date' ) ;
#191 = CC_DESIGN_APPROVAL ( #134, ( #23 ) ) ;
#192 = EDGE_LOOP ( 'NONE', ( #196 ) ) ;
#193 = DIRECTION ( 'NONE',  ( -3.491481338843133355E-15, -5.618762383794442825E-16, -1.000000000000000000 ) ) ;
#194 = EDGE_LOOP ( 'NONE', ( #29 ) ) ;
#195 = AXIS2_PLACEMENT_3D ( 'NONE', #142, #163, #236 ) ;
#196 = ORIENTED_EDGE ( 'NONE', *, *, #179, .T. ) ;
#197 = DIRECTION ( 'NONE',  ( -3.491481338843133355E-15, 1.049697256412017316E-16, -1.000000000000000000 ) ) ;
#198 = DIRECTION ( 'NONE',  ( -3.491481338843133355E-15, 1.049697256412017316E-16, -1.000000000000000000 ) ) ;
#199 = CARTESIAN_POINT ( 'NONE',  ( 3.709793311762370556E-14, 5.970086931264886107E-15, 10.62527034153237793 ) ) ;
#200 = VERTEX_POINT ( 'NONE', #160 ) ;
#201 = APPROVAL ( #115, 'UNSPECIFIED' ) ;
#202 = DIRECTION ( 'NONE',  ( 3.664998382197393967E-31, 1.000000000000000000, 1.049697256412017316E-16 ) ) ;
#203 = DATE_AND_TIME ( #242, #207 ) ;
#204 = PERSON_AND_ORGANIZATION_ROLE ( 'creator' ) ;
#205 = LOCAL_TIME ( 14, 1, 52.00000000000000000, #221 ) ;
#206 = APPROVAL_DATE_TIME ( #97, #201 ) ;
#207 = LOCAL_TIME ( 14, 1, 52.00000000000000000, #241 ) ;
#208 = DIRECTION ( 'NONE',  ( 1.961780401041205706E-30, -1.000000000000000000, 5.618762383794442825E-16 ) ) ;
#209 = EDGE_LOOP ( 'NONE', ( #3 ) ) ;
#210 = CC_DESIGN_PERSON_AND_ORGANIZATION_ASSIGNMENT ( #17, #79, ( #23 ) ) ;
#211 = FACE_OUTER_BOUND ( 'NONE', #209, .T. ) ;
#212 = FACE_OUTER_BOUND ( 'NONE', #225, .T. ) ;
#213 = FACE_OUTER_BOUND ( 'NONE', #194, .T. ) ;
#214 = AXIS2_PLACEMENT_3D ( 'NONE', #71, #180, #33 ) ;
#215 = DIRECTION ( 'NONE',  ( -3.493750466008605980E-30, 1.000000000000000000, -9.834033310526159151E-16 ) ) ;
#216 = ADVANCED_FACE ( 'NONE', ( #213, #12 ), #70, .T. ) ;
#217 = VERTEX_POINT ( 'NONE', #50 ) ;
#218 = FACE_OUTER_BOUND ( 'NONE', #155, .T. ) ;
#219 = CARTESIAN_POINT ( 'NONE',  ( 2.444036937190193601E-13, -7.347880794884121511E-15, 70.00000000000000000 ) ) ;
#220 = CC_DESIGN_DATE_AND_TIME_ASSIGNMENT ( #54, #150, ( #102 ) ) ;
#221 = COORDINATED_UNIVERSAL_TIME_OFFSET ( 1, 0, .AHEAD. ) ;
#222 = CALENDAR_DATE ( 2021, 26, 11 ) ;
#223 = PERSON_AND_ORGANIZATION ( #74, #11 ) ;
#224 = MECHANICAL_CONTEXT ( 'NONE', #126, 'mechanical' ) ;
#225 = EDGE_LOOP ( 'NONE', ( #67 ) ) ;
#226 = CIRCLE ( 'NONE', #184, 1.763999999999992463 ) ;
#227 = FACE_OUTER_BOUND ( 'NONE', #81, .T. ) ;
#228 = DIRECTION ( 'NONE',  ( -3.491481338843133355E-15, 1.049697256412017316E-16, -1.000000000000000000 ) ) ;
#229 = CARTESIAN_POINT ( 'NONE',  ( 2.988148434140350732E-30, 4.808760061855339696E-31, 8.558397265071572849E-16 ) ) ;
#230 = ADVANCED_FACE ( 'NONE', ( #16, #218 ), #38, .T. ) ;
#231 = APPROVAL_PERSON_ORGANIZATION ( #53, #25, #21 ) ;
#232 = PLANE ( 'NONE',  #34 ) ;
#233 = VERTEX_POINT ( 'NONE', #112 ) ;
#234 = CC_DESIGN_APPROVAL ( #25, ( #102 ) ) ;
#235 = DIRECTION ( 'NONE',  ( -3.491481338843133355E-15, 1.049697256412017316E-16, -1.000000000000000000 ) ) ;
#236 = DIRECTION ( 'NONE',  ( 3.664998382197393967E-31, 1.000000000000000000, 1.049697256412017316E-16 ) ) ;
#237 = CARTESIAN_POINT ( 'NONE',  ( 0.0000000000000000000, 0.0000000000000000000, 0.0000000000000000000 ) ) ;
#238 = CC_DESIGN_SECURITY_CLASSIFICATION ( #27, ( #23 ) ) ;
#239 = PERSON_AND_ORGANIZATION_ROLE ( 'design_owner' ) ;
#240 = APPROVAL_DATE_TIME ( #37, #25 ) ;
#241 = COORDINATED_UNIVERSAL_TIME_OFFSET ( 1, 0, .AHEAD. ) ;
#242 = CALENDAR_DATE ( 2021, 26, 11 ) ;
#243 = CIRCLE ( 'NONE', #6, 1.499999999999997558 ) ;
ENDSEC;
END-ISO-10303-21;
