ISO-10303-21;
HEADER;
FILE_DESCRIPTION (( 'STEP AP203' ),
    '1' );
FILE_NAME ('321255.step',
    '2021-11-26T13:01:51',
    ( '' ),
    ( '' ),
    'SwSTEP 2.0',
    'SolidWorks 2019',
    '' );
FILE_SCHEMA (( 'CONFIG_CONTROL_DESIGN' ));
ENDSEC;

DATA;
#1 = CARTESIAN_POINT ( 'NONE',  ( 2.974635308663082295E-30, 4.781415733935401990E-31, 8.519694135466000297E-16 ) ) ;
#2 = DIRECTION ( 'NONE',  ( 1.959486284700205559E-30, -1.000000000000000000, 5.612191773447831627E-16 ) ) ;
#3 = CC_DESIGN_APPROVAL ( #214, ( #80 ) ) ;
#4 = CARTESIAN_POINT ( 'NONE',  ( 3.869445280877825183E-14, -1.163330317703974635E-15, 11.08253175473057617 ) ) ;
#5 = FACE_BOUND ( 'NONE', #216, .T. ) ;
#6 = CARTESIAN_POINT ( 'NONE',  ( 3.869445280877825183E-14, 1.499999999999991562, 11.08253175473057617 ) ) ;
#7 = APPROVAL_PERSON_ORGANIZATION ( #70, #214, #240 ) ;
#8 = CC_DESIGN_PERSON_AND_ORGANIZATION_ASSIGNMENT ( #160, #176, ( #105 ) ) ;
#9 = CARTESIAN_POINT ( 'NONE',  ( 2.444036937190193601E-13, -7.347880794884121511E-15, 70.00000000000000000 ) ) ;
#10 = DIRECTION ( 'NONE',  ( 3.491481338843133355E-15, -1.049697256412017316E-16, 1.000000000000000000 ) ) ;
#11 = DATE_AND_TIME ( #120, #221 ) ;
#12 = DATE_AND_TIME ( #25, #45 ) ;
#13 = CIRCLE ( 'NONE', #167, 1.758999999999992569 ) ;
#14 = AXIS2_PLACEMENT_3D ( 'NONE', #9, #10, #195 ) ;
#15 = PERSON_AND_ORGANIZATION ( #32, #144 ) ;
#16 = EDGE_LOOP ( 'NONE', ( #239 ) ) ;
#17 = PERSON_AND_ORGANIZATION_ROLE ( 'design_supplier' ) ;
#18 = EDGE_CURVE ( 'NONE', #173, #173, #172, .T. ) ;
#19 = CIRCLE ( 'NONE', #26, 1.199999999999997513 ) ;
#20 = EDGE_LOOP ( 'NONE', ( #121 ) ) ;
#21 = DIRECTION ( 'NONE',  ( -3.491481338843133355E-15, -5.612191773447831627E-16, -1.000000000000000000 ) ) ;
#22 = ORIENTED_EDGE ( 'NONE', *, *, #211, .F. ) ;
#23 = FACE_BOUND ( 'NONE', #227, .T. ) ;
#24 = ORIENTED_EDGE ( 'NONE', *, *, #203, .F. ) ;
#25 = CALENDAR_DATE ( 2021, 26, 11 ) ;
#26 = AXIS2_PLACEMENT_3D ( 'NONE', #205, #123, #76 ) ;
#27 = VERTEX_POINT ( 'NONE', #131 ) ;
#28 = CYLINDRICAL_SURFACE ( 'NONE', #54, 1.758999999999995456 ) ;
#29 = VERTEX_POINT ( 'NONE', #193 ) ;
#30 = AXIS2_PLACEMENT_3D ( 'NONE', #94, #21, #170 ) ;
#31 = APPROVAL_DATE_TIME ( #12, #52 ) ;
#32 = PERSON ( 'UNSPECIFIED', 'UNSPECIFIED', 'UNSPECIFIED', ('UNSPECIFIED'), ('UNSPECIFIED'), ('UNSPECIFIED') ) ;
#33 = EDGE_LOOP ( 'NONE', ( #220 ) ) ;
#34 = EDGE_CURVE ( 'NONE', #233, #233, #210, .T. ) ;
#35 = AXIS2_PLACEMENT_3D ( 'NONE', #154, #192, #235 ) ;
#36 = APPROVAL_STATUS ( 'not_yet_approved' ) ;
#37 = DIRECTION ( 'NONE',  ( 0.0000000000000000000, 1.000000000000000000, 0.0000000000000000000 ) ) ;
#38 = DESIGN_CONTEXT ( 'detailed design', #93, 'design' ) ;
#39 = EDGE_LOOP ( 'NONE', ( #119 ) ) ;
#40 = EDGE_LOOP ( 'NONE', ( #143 ) ) ;
#41 = EDGE_CURVE ( 'NONE', #27, #27, #13, .T. ) ;
#42 = DIRECTION ( 'NONE',  ( 3.664998382197393967E-31, 1.000000000000000000, 1.049697256412017316E-16 ) ) ;
#43 = DIRECTION ( 'NONE',  ( -3.491481338843133355E-15, 1.049697256412017316E-16, -1.000000000000000000 ) ) ;
#44 = APPROVAL_ROLE ( '' ) ;
#45 = LOCAL_TIME ( 14, 1, 51.00000000000000000, #191 ) ;
#46 = FACE_OUTER_BOUND ( 'NONE', #16, .T. ) ;
#47 = DIRECTION ( 'NONE',  ( -3.491481338843133355E-15, -5.612191773447831627E-16, -1.000000000000000000 ) ) ;
#48 =( NAMED_UNIT ( * ) SI_UNIT ( $, .STERADIAN. ) SOLID_ANGLE_UNIT ( ) );
#49 = CIRCLE ( 'NONE', #67, 1.499999999999997558 ) ;
#50 = PERSON_AND_ORGANIZATION ( #32, #144 ) ;
#51 = ORIENTED_EDGE ( 'NONE', *, *, #41, .F. ) ;
#52 = APPROVAL ( #208, 'UNSPECIFIED' ) ;
#53 = EDGE_LOOP ( 'NONE', ( #188 ) ) ;
#54 = AXIS2_PLACEMENT_3D ( 'NONE', #209, #47, #115 ) ;
#55 = DIRECTION ( 'NONE',  ( 0.0000000000000000000, 1.000000000000000000, 0.0000000000000000000 ) ) ;
#56 = PRODUCT_DEFINITION_SHAPE ( 'NONE', 'NONE',  #105 ) ;
#57 = AXIS2_PLACEMENT_3D ( 'NONE', #73, #204, #55 ) ;
#58 = FACE_OUTER_BOUND ( 'NONE', #127, .T. ) ;
#59 = DIRECTION ( 'NONE',  ( -3.491481338843133355E-15, 1.049697256412017316E-16, -1.000000000000000000 ) ) ;
#60 = ADVANCED_FACE ( 'NONE', ( #23, #58 ), #201, .T. ) ;
#61 = DIRECTION ( 'NONE',  ( 3.664998382197393967E-31, 1.000000000000000000, 1.049697256412017316E-16 ) ) ;
#62 = DIRECTION ( 'NONE',  ( -3.491481338843133355E-15, 1.049697256412017316E-16, -1.000000000000000000 ) ) ;
#63 =( GEOMETRIC_REPRESENTATION_CONTEXT ( 3 ) GLOBAL_UNCERTAINTY_ASSIGNED_CONTEXT ( ( #124 ) ) GLOBAL_UNIT_ASSIGNED_CONTEXT ( ( #66, #81, #48 ) ) REPRESENTATION_CONTEXT ( 'NONE', 'WORKASPACE' ) );
#64 = PERSON_AND_ORGANIZATION ( #32, #144 ) ;
#65 = CARTESIAN_POINT ( 'NONE',  ( 8.728703347107831416E-16, 1.758999999999998565, 0.2499999999999999445 ) ) ;
#66 =( LENGTH_UNIT ( ) NAMED_UNIT ( * ) SI_UNIT ( .MILLI., .METRE. ) );
#67 = AXIS2_PLACEMENT_3D ( 'NONE', #114, #99, #212 ) ;
#68 = FACE_OUTER_BOUND ( 'NONE', #40, .T. ) ;
#69 = AXIS2_PLACEMENT_3D ( 'NONE', #4, #224, #37 ) ;
#70 = PERSON_AND_ORGANIZATION ( #32, #144 ) ;
#71 = DATE_TIME_ROLE ( 'classification_date' ) ;
#72 = CONICAL_SURFACE ( 'NONE', #215, 1.758999999999999675, 0.5235987755982938197 ) ;
#73 = CARTESIAN_POINT ( 'NONE',  ( 3.712817023298646798E-14, -1.116240777104586852E-15, 10.63393059557022013 ) ) ;
#74 = CC_DESIGN_SECURITY_CLASSIFICATION ( #80, ( #196 ) ) ;
#75 = ADVANCED_FACE ( 'NONE', ( #202 ), #107, .T. ) ;
#76 = DIRECTION ( 'NONE',  ( 0.0000000000000000000, 1.000000000000000000, 0.0000000000000000000 ) ) ;
#77 = CARTESIAN_POINT ( 'NONE',  ( 3.712817023298646167E-14, 5.967965780787437597E-15, 10.63393059557021836 ) ) ;
#78 = FACE_OUTER_BOUND ( 'NONE', #53, .T. ) ;
#79 = CARTESIAN_POINT ( 'NONE',  ( 3.712817023298646798E-14, 1.758999999999998565, 10.63393059557022013 ) ) ;
#80 = SECURITY_CLASSIFICATION ( '', '', #158 ) ;
#81 =( NAMED_UNIT ( * ) PLANE_ANGLE_UNIT ( ) SI_UNIT ( $, .RADIAN. ) );
#82 = VERTEX_POINT ( 'NONE', #151 ) ;
#83 = ADVANCED_FACE ( 'NONE', ( #166 ), #145, .T. ) ;
#84 = APPROVAL_PERSON_ORGANIZATION ( #95, #52, #44 ) ;
#85 = PLANE ( 'NONE',  #14 ) ;
#86 = COORDINATED_UNIVERSAL_TIME_OFFSET ( 1, 0, .AHEAD. ) ;
#87 = PERSON_AND_ORGANIZATION_ROLE ( 'creator' ) ;
#88 = APPROVAL_PERSON_ORGANIZATION ( #15, #152, #135 ) ;
#89 = CARTESIAN_POINT ( 'NONE',  ( 3.712817023298647429E-14, 5.967965780787439174E-15, 10.63393059557022191 ) ) ;
#90 = DIRECTION ( 'NONE',  ( -3.491481338843133355E-15, -5.612191773447831627E-16, -1.000000000000000000 ) ) ;
#91 = AXIS2_PLACEMENT_3D ( 'NONE', #226, #59, #42 ) ;
#92 = DIRECTION ( 'NONE',  ( -3.503681536122331596E-30, 1.000000000000000000, -9.861986787815887247E-16 ) ) ;
#93 = APPLICATION_CONTEXT ( 'configuration controlled 3d designs of mechanical parts and assemblies' ) ;
#94 = CARTESIAN_POINT ( 'NONE',  ( -1.676591236969857612E-30, 1.614662432702592465, -4.801948153975752859E-16 ) ) ;
#95 = PERSON_AND_ORGANIZATION ( #32, #144 ) ;
#96 = DIRECTION ( 'NONE',  ( 0.0000000000000000000, 1.000000000000000000, 0.0000000000000000000 ) ) ;
#97 = VERTEX_POINT ( 'NONE', #153 ) ;
#98 = ADVANCED_FACE ( 'NONE', ( #148, #146 ), #190, .T. ) ;
#99 = DIRECTION ( 'NONE',  ( -3.491481338843133355E-15, 1.049697256412017316E-16, -1.000000000000000000 ) ) ;
#100 = AXIS2_PLACEMENT_3D ( 'NONE', #77, #185, #2 ) ;
#101 = EDGE_LOOP ( 'NONE', ( #218 ) ) ;
#102 = CALENDAR_DATE ( 2021, 26, 11 ) ;
#103 = APPROVAL_STATUS ( 'not_yet_approved' ) ;
#104 = CALENDAR_DATE ( 2021, 26, 11 ) ;
#105 = PRODUCT_DEFINITION ( 'UNKNOWN', '', #196, #38 ) ;
#106 = LOCAL_TIME ( 14, 1, 51.00000000000000000, #219 ) ;
#107 = PLANE ( 'NONE',  #30 ) ;
#108 = EDGE_LOOP ( 'NONE', ( #136 ) ) ;
#109 = EDGE_LOOP ( 'NONE', ( #51 ) ) ;
#110 = DIRECTION ( 'NONE',  ( -3.491481338843133355E-15, -5.612191773447831627E-16, -1.000000000000000000 ) ) ;
#111 = ADVANCED_BREP_SHAPE_REPRESENTATION ( '321255', ( #234, #142, #35 ), #63 ) ;
#112 = CIRCLE ( 'NONE', #206, 1.614662432702592465 ) ;
#113 = ADVANCED_FACE ( 'NONE', ( #223, #129 ), #225, .T. ) ;
#114 = CARTESIAN_POINT ( 'NONE',  ( 2.433562493173664138E-13, -7.316389877191761450E-15, 69.70000000000001705 ) ) ;
#115 = DIRECTION ( 'NONE',  ( -1.959486284700205559E-30, 1.000000000000000000, -5.612191773447831627E-16 ) ) ;
#116 = PERSON_AND_ORGANIZATION_ROLE ( 'design_owner' ) ;
#117 = CLOSED_SHELL ( 'NONE', ( #231, #60, #98, #186, #147 ) ) ;
#118 = PERSON_AND_ORGANIZATION ( #32, #144 ) ;
#119 = ORIENTED_EDGE ( 'NONE', *, *, #137, .F. ) ;
#120 = CALENDAR_DATE ( 2021, 26, 11 ) ;
#121 = ORIENTED_EDGE ( 'NONE', *, *, #18, .F. ) ;
#122 = CC_DESIGN_APPROVAL ( #52, ( #105 ) ) ;
#123 = DIRECTION ( 'NONE',  ( -3.491481338843133355E-15, 1.049697256412017316E-16, -1.000000000000000000 ) ) ;
#124 = UNCERTAINTY_MEASURE_WITH_UNIT (LENGTH_MEASURE( 1.000000000000000082E-05 ), #66, 'distance_accuracy_value', 'NONE');
#125 = AXIS2_PLACEMENT_3D ( 'NONE', #165, #62, #126 ) ;
#126 = DIRECTION ( 'NONE',  ( 0.0000000000000000000, 1.000000000000000000, 0.0000000000000000000 ) ) ;
#127 = EDGE_LOOP ( 'NONE', ( #24 ) ) ;
#128 = DIRECTION ( 'NONE',  ( -3.491481338843133355E-15, 1.049697256412017316E-16, -1.000000000000000000 ) ) ;
#129 = FACE_BOUND ( 'NONE', #177, .T. ) ;
#130 = DIRECTION ( 'NONE',  ( -3.491481338843133355E-15, -5.612191773447831627E-16, -1.000000000000000000 ) ) ;
#131 = CARTESIAN_POINT ( 'NONE',  ( 3.712817023298646798E-14, 1.758999999999998565, 10.63393059557022013 ) ) ;
#132 = CLOSED_SHELL ( 'NONE', ( #83, #242, #113, #75 ) ) ;
#133 = LOCAL_TIME ( 14, 1, 51.00000000000000000, #199 ) ;
#134 = APPLICATION_CONTEXT ( 'configuration controlled 3d designs of mechanical parts and assemblies' ) ;
#135 = APPROVAL_ROLE ( '' ) ;
#136 = ORIENTED_EDGE ( 'NONE', *, *, #34, .T. ) ;
#137 = EDGE_CURVE ( 'NONE', #97, #97, #19, .T. ) ;
#138 = APPROVAL_DATE_TIME ( #241, #214 ) ;
#139 = ORIENTED_EDGE ( 'NONE', *, *, #18, .T. ) ;
#140 = CC_DESIGN_DATE_AND_TIME_ASSIGNMENT ( #238, #71, ( #80 ) ) ;
#141 = DIRECTION ( 'NONE',  ( -1.970820864068804910E-30, 1.000000000000000000, -5.547367568146417964E-16 ) ) ;
#142 = MANIFOLD_SOLID_BREP ( 'Corps-Déplacer/Copier1[2]', #132 ) ;
#143 = ORIENTED_EDGE ( 'NONE', *, *, #41, .T. ) ;
#144 = ORGANIZATION ( 'UNSPECIFIED', 'UNSPECIFIED', '' ) ;
#145 = PLANE ( 'NONE',  #100 ) ;
#146 = FACE_OUTER_BOUND ( 'NONE', #20, .T. ) ;
#147 = ADVANCED_FACE ( 'NONE', ( #164 ), #243, .T. ) ;
#148 = FACE_OUTER_BOUND ( 'NONE', #101, .T. ) ;
#149 = CIRCLE ( 'NONE', #57, 1.758999999999999675 ) ;
#150 = VERTEX_POINT ( 'NONE', #79 ) ;
#151 = CARTESIAN_POINT ( 'NONE',  ( -1.892735826383164860E-31, 1.614662432702592465, -5.421010862427522170E-17 ) ) ;
#152 = APPROVAL ( #103, 'UNSPECIFIED' ) ;
#153 = CARTESIAN_POINT ( 'NONE',  ( 2.444036937190193601E-13, 1.199999999999990186, 70.00000000000000000 ) ) ;
#154 = CARTESIAN_POINT ( 'NONE',  ( 0.0000000000000000000, 0.0000000000000000000, 0.0000000000000000000 ) ) ;
#155 = PERSON_AND_ORGANIZATION_ROLE ( 'classification_officer' ) ;
#156 = AXIS2_PLACEMENT_3D ( 'NONE', #228, #90, #141 ) ;
#157 = EDGE_LOOP ( 'NONE', ( #222 ) ) ;
#158 = SECURITY_CLASSIFICATION_LEVEL ( 'unclassified' ) ;
#159 = CC_DESIGN_DATE_AND_TIME_ASSIGNMENT ( #11, #237, ( #105 ) ) ;
#160 = PERSON_AND_ORGANIZATION ( #32, #144 ) ;
#161 = CC_DESIGN_PERSON_AND_ORGANIZATION_ASSIGNMENT ( #50, #155, ( #80 ) ) ;
#162 = SHAPE_DEFINITION_REPRESENTATION ( #56, #111 ) ;
#163 = AXIS2_PLACEMENT_3D ( 'NONE', #169, #128, #61 ) ;
#164 = FACE_OUTER_BOUND ( 'NONE', #33, .T. ) ;
#165 = CARTESIAN_POINT ( 'NONE',  ( 2.433562493173664138E-13, -7.316389877191761450E-15, 69.70000000000001705 ) ) ;
#166 = FACE_OUTER_BOUND ( 'NONE', #109, .T. ) ;
#167 = AXIS2_PLACEMENT_3D ( 'NONE', #89, #110, #92 ) ;
#168 = EDGE_CURVE ( 'NONE', #150, #150, #149, .T. ) ;
#169 = CARTESIAN_POINT ( 'NONE',  ( 0.0000000000000000000, 0.0000000000000000000, 0.0000000000000000000 ) ) ;
#170 = DIRECTION ( 'NONE',  ( -1.959486284700205559E-30, 1.000000000000000000, -5.612191773447831627E-16 ) ) ;
#171 = DIRECTION ( 'NONE',  ( -1.959486284700205559E-30, 1.000000000000000000, -5.612191773447832613E-16 ) ) ;
#172 = CIRCLE ( 'NONE', #69, 1.499999999999992673 ) ;
#173 = VERTEX_POINT ( 'NONE', #6 ) ;
#174 = APPLICATION_PROTOCOL_DEFINITION ( 'international standard', 'config_control_design', 1994, #134 ) ;
#175 = CARTESIAN_POINT ( 'NONE',  ( 2.974635308663082295E-30, 4.781415733935401990E-31, 8.519694135466000297E-16 ) ) ;
#176 = PERSON_AND_ORGANIZATION_ROLE ( 'creator' ) ;
#177 = EDGE_LOOP ( 'NONE', ( #22 ) ) ;
#178 = PERSON_AND_ORGANIZATION ( #32, #144 ) ;
#179 = CALENDAR_DATE ( 2021, 26, 11 ) ;
#180 = CC_DESIGN_PERSON_AND_ORGANIZATION_ASSIGNMENT ( #118, #87, ( #196 ) ) ;
#181 = DATE_AND_TIME ( #102, #229 ) ;
#182 = PRODUCT ( '321255', '321255', '', ( #213 ) ) ;
#183 = CC_DESIGN_APPROVAL ( #152, ( #196 ) ) ;
#184 = DIRECTION ( 'NONE',  ( 1.959486284700205559E-30, -1.000000000000000000, 5.612191773447832613E-16 ) ) ;
#185 = DIRECTION ( 'NONE',  ( 3.491481338843133355E-15, 5.612191773447831627E-16, 1.000000000000000000 ) ) ;
#186 = ADVANCED_FACE ( 'NONE', ( #5, #78 ), #72, .T. ) ;
#187 = DIRECTION ( 'NONE',  ( 3.491481338843133355E-15, 5.612191773447831627E-16, 1.000000000000000000 ) ) ;
#188 = ORIENTED_EDGE ( 'NONE', *, *, #168, .F. ) ;
#189 = PRODUCT_RELATED_PRODUCT_CATEGORY ( 'detail', '', ( #182 ) ) ;
#190 = CYLINDRICAL_SURFACE ( 'NONE', #163, 1.499999999999995337 ) ;
#191 = COORDINATED_UNIVERSAL_TIME_OFFSET ( 1, 0, .AHEAD. ) ;
#192 = DIRECTION ( 'NONE',  ( 0.0000000000000000000, 0.0000000000000000000, 1.000000000000000000 ) ) ;
#193 = CARTESIAN_POINT ( 'NONE',  ( 2.433562493173664138E-13, 1.499999999999990230, 69.70000000000001705 ) ) ;
#194 = CC_DESIGN_PERSON_AND_ORGANIZATION_ASSIGNMENT ( #64, #116, ( #182 ) ) ;
#195 = DIRECTION ( 'NONE',  ( -3.664998382197393967E-31, -1.000000000000000000, -1.049697256412017316E-16 ) ) ;
#196 = PRODUCT_DEFINITION_FORMATION_WITH_SPECIFIED_SOURCE ( 'ANY', '', #182, .NOT_KNOWN. ) ;
#197 = APPLICATION_PROTOCOL_DEFINITION ( 'international standard', 'config_control_design', 1994, #93 ) ;
#198 = COORDINATED_UNIVERSAL_TIME_OFFSET ( 1, 0, .AHEAD. ) ;
#199 = COORDINATED_UNIVERSAL_TIME_OFFSET ( 1, 0, .AHEAD. ) ;
#200 = ORIENTED_EDGE ( 'NONE', *, *, #137, .T. ) ;
#201 = CONICAL_SURFACE ( 'NONE', #125, 1.499999999999997558, 0.7853981633974573828 ) ;
#202 = FACE_OUTER_BOUND ( 'NONE', #157, .T. ) ;
#203 = EDGE_CURVE ( 'NONE', #29, #29, #49, .T. ) ;
#204 = DIRECTION ( 'NONE',  ( -3.491481338843133355E-15, 1.049697256412017316E-16, -1.000000000000000000 ) ) ;
#205 = CARTESIAN_POINT ( 'NONE',  ( 2.444036937190193601E-13, -7.347880794884121511E-15, 70.00000000000000000 ) ) ;
#206 = AXIS2_PLACEMENT_3D ( 'NONE', #175, #130, #171 ) ;
#207 = CARTESIAN_POINT ( 'NONE',  ( 3.712817023298646798E-14, -1.116240777104586852E-15, 10.63393059557022013 ) ) ;
#208 = APPROVAL_STATUS ( 'not_yet_approved' ) ;
#209 = CARTESIAN_POINT ( 'NONE',  ( 0.0000000000000000000, 0.0000000000000000000, 0.0000000000000000000 ) ) ;
#210 = CIRCLE ( 'NONE', #156, 1.758999999999998343 ) ;
#211 = EDGE_CURVE ( 'NONE', #82, #82, #112, .T. ) ;
#212 = DIRECTION ( 'NONE',  ( 0.0000000000000000000, 1.000000000000000000, 0.0000000000000000000 ) ) ;
#213 = MECHANICAL_CONTEXT ( 'NONE', #134, 'mechanical' ) ;
#214 = APPROVAL ( #36, 'UNSPECIFIED' ) ;
#215 = AXIS2_PLACEMENT_3D ( 'NONE', #207, #43, #96 ) ;
#216 = EDGE_LOOP ( 'NONE', ( #139 ) ) ;
#217 = APPROVAL_DATE_TIME ( #181, #152 ) ;
#218 = ORIENTED_EDGE ( 'NONE', *, *, #203, .T. ) ;
#219 = COORDINATED_UNIVERSAL_TIME_OFFSET ( 1, 0, .AHEAD. ) ;
#220 = ORIENTED_EDGE ( 'NONE', *, *, #168, .T. ) ;
#221 = LOCAL_TIME ( 14, 1, 51.00000000000000000, #198 ) ;
#222 = ORIENTED_EDGE ( 'NONE', *, *, #211, .T. ) ;
#223 = FACE_OUTER_BOUND ( 'NONE', #108, .T. ) ;
#224 = DIRECTION ( 'NONE',  ( -3.491481338843133355E-15, 1.049697256412017316E-16, -1.000000000000000000 ) ) ;
#225 = CONICAL_SURFACE ( 'NONE', #232, 1.614662432702592465, 0.5235987755982971503 ) ;
#226 = CARTESIAN_POINT ( 'NONE',  ( 3.712817023298646167E-14, 1.758999999999998565, 10.63393059557021836 ) ) ;
#227 = EDGE_LOOP ( 'NONE', ( #200 ) ) ;
#228 = CARTESIAN_POINT ( 'NONE',  ( 8.728703347107866915E-16, 1.403047943361963084E-16, 0.2500000000000009437 ) ) ;
#229 = LOCAL_TIME ( 14, 1, 51.00000000000000000, #86 ) ;
#230 = FACE_OUTER_BOUND ( 'NONE', #39, .T. ) ;
#231 = ADVANCED_FACE ( 'NONE', ( #230 ), #85, .T. ) ;
#232 = AXIS2_PLACEMENT_3D ( 'NONE', #1, #187, #184 ) ;
#233 = VERTEX_POINT ( 'NONE', #65 ) ;
#234 = MANIFOLD_SOLID_BREP ( 'Corps-Déplacer/Copier1[1]', #117 ) ;
#235 = DIRECTION ( 'NONE',  ( 1.000000000000000000, 0.0000000000000000000, 0.0000000000000000000 ) ) ;
#236 = CC_DESIGN_PERSON_AND_ORGANIZATION_ASSIGNMENT ( #178, #17, ( #196 ) ) ;
#237 = DATE_TIME_ROLE ( 'creation_date' ) ;
#238 = DATE_AND_TIME ( #179, #106 ) ;
#239 = ORIENTED_EDGE ( 'NONE', *, *, #34, .F. ) ;
#240 = APPROVAL_ROLE ( '' ) ;
#241 = DATE_AND_TIME ( #104, #133 ) ;
#242 = ADVANCED_FACE ( 'NONE', ( #68, #46 ), #28, .T. ) ;
#243 = PLANE ( 'NONE',  #91 ) ;
ENDSEC;
END-ISO-10303-21;
