ISO-10303-21;
HEADER;
FILE_DESCRIPTION (( 'STEP AP203' ),
    '1' );
FILE_NAME ('321254.step',
    '2021-11-26T13:01:51',
    ( '' ),
    ( '' ),
    'SwSTEP 2.0',
    'SolidWorks 2019',
    '' );
FILE_SCHEMA (( 'CONFIG_CONTROL_DESIGN' ));
ENDSEC;

DATA;
#1 = DIRECTION ( 'NONE',  ( -3.491481338843133355E-15, 1.049697256412017316E-16, -1.000000000000000000 ) ) ;
#2 =( LENGTH_UNIT ( ) NAMED_UNIT ( * ) SI_UNIT ( .MILLI., .METRE. ) );
#3 = LOCAL_TIME ( 14, 1, 51.00000000000000000, #5 ) ;
#4 = DATE_AND_TIME ( #34, #189 ) ;
#5 = COORDINATED_UNIVERSAL_TIME_OFFSET ( 1, 0, .AHEAD. ) ;
#6 = DIRECTION ( 'NONE',  ( 0.0000000000000000000, 0.0000000000000000000, 1.000000000000000000 ) ) ;
#7 = CLOSED_SHELL ( 'NONE', ( #19, #196, #77, #128 ) ) ;
#8 = DIRECTION ( 'NONE',  ( -3.491481338843133355E-15, -5.605631856579067407E-16, -1.000000000000000000 ) ) ;
#9 = CC_DESIGN_PERSON_AND_ORGANIZATION_ASSIGNMENT ( #87, #54, ( #148 ) ) ;
#10 = DIRECTION ( 'NONE',  ( -1.976438939507997398E-30, 1.000000000000000000, -5.563181044680472103E-16 ) ) ;
#11 = DIRECTION ( 'NONE',  ( 3.664998382197393967E-31, 1.000000000000000000, 1.049697256412017316E-16 ) ) ;
#12 = DIRECTION ( 'NONE',  ( -3.491481338843133355E-15, 1.049697256412017316E-16, -1.000000000000000000 ) ) ;
#13 = CC_DESIGN_APPROVAL ( #206, ( #200 ) ) ;
#14 = APPROVAL_PERSON_ORGANIZATION ( #105, #225, #68 ) ;
#15 = AXIS2_PLACEMENT_3D ( 'NONE', #116, #114, #10 ) ;
#16 = DIRECTION ( 'NONE',  ( -3.491481338843133355E-15, -5.605631856579067407E-16, -1.000000000000000000 ) ) ;
#17 = PERSON_AND_ORGANIZATION_ROLE ( 'creator' ) ;
#18 = DATE_TIME_ROLE ( 'creation_date' ) ;
#19 = ADVANCED_FACE ( 'NONE', ( #124 ), #55, .T. ) ;
#20 = PERSON_AND_ORGANIZATION_ROLE ( 'design_owner' ) ;
#21 = EDGE_LOOP ( 'NONE', ( #130 ) ) ;
#22 = EDGE_LOOP ( 'NONE', ( #149 ) ) ;
#23 = ORIENTED_EDGE ( 'NONE', *, *, #85, .T. ) ;
#24 = EDGE_LOOP ( 'NONE', ( #93 ) ) ;
#25 = APPROVAL_ROLE ( '' ) ;
#26 = CARTESIAN_POINT ( 'NONE',  ( 2.961151134197494710E-30, 4.754177817116061901E-31, 8.481073924853459876E-16 ) ) ;
#27 = FACE_OUTER_BOUND ( 'NONE', #233, .T. ) ;
#28 = DIRECTION ( 'NONE',  ( 0.0000000000000000000, 1.000000000000000000, 0.0000000000000000000 ) ) ;
#29 = ADVANCED_FACE ( 'NONE', ( #209 ), #129, .T. ) ;
#30 = PRODUCT_RELATED_PRODUCT_CATEGORY ( 'detail', '', ( #81 ) ) ;
#31 = CARTESIAN_POINT ( 'NONE',  ( 2.961151134197494710E-30, 4.754177817116061901E-31, 8.481073924853459876E-16 ) ) ;
#32 = DIRECTION ( 'NONE',  ( -3.491481338843133355E-15, 1.049697256412017316E-16, -1.000000000000000000 ) ) ;
#33 = VERTEX_POINT ( 'NONE', #183 ) ;
#34 = CALENDAR_DATE ( 2021, 26, 11 ) ;
#35 = VERTEX_POINT ( 'NONE', #108 ) ;
#36 = DATE_AND_TIME ( #125, #67 ) ;
#37 = VERTEX_POINT ( 'NONE', #208 ) ;
#38 = AXIS2_PLACEMENT_3D ( 'NONE', #229, #6, #66 ) ;
#39 = APPLICATION_CONTEXT ( 'configuration controlled 3d designs of mechanical parts and assemblies' ) ;
#40 = DATE_AND_TIME ( #133, #99 ) ;
#41 = CYLINDRICAL_SURFACE ( 'NONE', #136, 1.753999999999995563 ) ;
#42 = ADVANCED_BREP_SHAPE_REPRESENTATION ( '321254', ( #198, #143, #38 ), #79 ) ;
#43 = PERSON_AND_ORGANIZATION ( #83, #212 ) ;
#44 = AXIS2_PLACEMENT_3D ( 'NONE', #238, #32, #103 ) ;
#45 = LOCAL_TIME ( 14, 1, 51.00000000000000000, #134 ) ;
#46 = DIRECTION ( 'NONE',  ( 0.0000000000000000000, 1.000000000000000000, 0.0000000000000000000 ) ) ;
#47 = CARTESIAN_POINT ( 'NONE',  ( 0.0000000000000000000, 0.0000000000000000000, 0.0000000000000000000 ) ) ;
#48 = APPROVAL ( #234, 'UNSPECIFIED' ) ;
#49 = DIRECTION ( 'NONE',  ( -3.491481338843133355E-15, -5.605631856579067407E-16, -1.000000000000000000 ) ) ;
#50 = VERTEX_POINT ( 'NONE', #160 ) ;
#51 = APPLICATION_PROTOCOL_DEFINITION ( 'international standard', 'config_control_design', 1994, #193 ) ;
#52 = EDGE_CURVE ( 'NONE', #50, #50, #94, .T. ) ;
#53 = PERSON_AND_ORGANIZATION ( #83, #212 ) ;
#54 = PERSON_AND_ORGANIZATION_ROLE ( 'creator' ) ;
#55 = PLANE ( 'NONE',  #82 ) ;
#56 = APPROVAL_STATUS ( 'not_yet_approved' ) ;
#57 = CARTESIAN_POINT ( 'NONE',  ( 3.715840734834924303E-14, -1.117149841594922576E-15, 10.64259084960806412 ) ) ;
#58 = SHAPE_DEFINITION_REPRESENTATION ( #106, #42 ) ;
#59 = DIRECTION ( 'NONE',  ( -1.957195901967040080E-30, 1.000000000000000000, -5.605631856579066421E-16 ) ) ;
#60 = PERSON_AND_ORGANIZATION_ROLE ( 'classification_officer' ) ;
#61 = CIRCLE ( 'NONE', #72, 1.499999999999997558 ) ;
#62 = CYLINDRICAL_SURFACE ( 'NONE', #123, 1.499999999999995337 ) ;
#63 = DIRECTION ( 'NONE',  ( 1.957195901967040430E-30, -1.000000000000000000, 5.605631856579066421E-16 ) ) ;
#64 = CARTESIAN_POINT ( 'NONE',  ( 2.444036937190193601E-13, -7.347880794884121511E-15, 70.00000000000000000 ) ) ;
#65 = EDGE_CURVE ( 'NONE', #35, #35, #176, .T. ) ;
#66 = DIRECTION ( 'NONE',  ( 1.000000000000000000, 0.0000000000000000000, 0.0000000000000000000 ) ) ;
#67 = LOCAL_TIME ( 14, 1, 51.00000000000000000, #231 ) ;
#68 = APPROVAL_ROLE ( '' ) ;
#69 = ORIENTED_EDGE ( 'NONE', *, *, #169, .F. ) ;
#70 = CARTESIAN_POINT ( 'NONE',  ( 2.444036937190193601E-13, 1.199999999999990186, 70.00000000000000000 ) ) ;
#71 = EDGE_LOOP ( 'NONE', ( #112 ) ) ;
#72 = AXIS2_PLACEMENT_3D ( 'NONE', #84, #135, #159 ) ;
#73 = EDGE_LOOP ( 'NONE', ( #147 ) ) ;
#74 = AXIS2_PLACEMENT_3D ( 'NONE', #26, #217, #63 ) ;
#75 = DIRECTION ( 'NONE',  ( -3.491481338843133355E-15, 1.049697256412017316E-16, -1.000000000000000000 ) ) ;
#76 = CARTESIAN_POINT ( 'NONE',  ( 2.433562493173664138E-13, -7.316389877191761450E-15, 69.70000000000001705 ) ) ;
#77 = ADVANCED_FACE ( 'NONE', ( #138, #219 ), #170, .T. ) ;
#78 = CARTESIAN_POINT ( 'NONE',  ( 3.715840734834924303E-14, 1.753999999999998671, 10.64259084960806412 ) ) ;
#79 =( GEOMETRIC_REPRESENTATION_CONTEXT ( 3 ) GLOBAL_UNCERTAINTY_ASSIGNED_CONTEXT ( ( #158 ) ) GLOBAL_UNIT_ASSIGNED_CONTEXT ( ( #2, #181, #122 ) ) REPRESENTATION_CONTEXT ( 'NONE', 'WORKASPACE' ) );
#80 = DIRECTION ( 'NONE',  ( 0.0000000000000000000, 1.000000000000000000, 0.0000000000000000000 ) ) ;
#81 = PRODUCT ( '321254', '321254', '', ( #142 ) ) ;
#82 = AXIS2_PLACEMENT_3D ( 'NONE', #207, #126, #88 ) ;
#83 = PERSON ( 'UNSPECIFIED', 'UNSPECIFIED', 'UNSPECIFIED', ('UNSPECIFIED'), ('UNSPECIFIED'), ('UNSPECIFIED') ) ;
#84 = CARTESIAN_POINT ( 'NONE',  ( 2.433562493173664138E-13, -7.316389877191761450E-15, 69.70000000000001705 ) ) ;
#85 = EDGE_CURVE ( 'NONE', #33, #33, #243, .T. ) ;
#86 = PERSON_AND_ORGANIZATION ( #83, #212 ) ;
#87 = PERSON_AND_ORGANIZATION ( #83, #212 ) ;
#88 = DIRECTION ( 'NONE',  ( 1.957195901967040080E-30, -1.000000000000000000, 5.605631856579067407E-16 ) ) ;
#89 = COORDINATED_UNIVERSAL_TIME_OFFSET ( 1, 0, .AHEAD. ) ;
#90 = EDGE_LOOP ( 'NONE', ( #150 ) ) ;
#91 = AXIS2_PLACEMENT_3D ( 'NONE', #96, #12, #101 ) ;
#92 = PERSON_AND_ORGANIZATION ( #83, #212 ) ;
#93 = ORIENTED_EDGE ( 'NONE', *, *, #113, .T. ) ;
#94 = CIRCLE ( 'NONE', #44, 1.499999999999992673 ) ;
#95 = FACE_OUTER_BOUND ( 'NONE', #132, .T. ) ;
#96 = CARTESIAN_POINT ( 'NONE',  ( 3.715840734834924303E-14, -1.117149841594922576E-15, 10.64259084960806412 ) ) ;
#97 = DIRECTION ( 'NONE',  ( -3.513669225792007440E-30, 1.000000000000000000, -9.890099634987539926E-16 ) ) ;
#98 = APPROVAL_PERSON_ORGANIZATION ( #86, #48, #127 ) ;
#99 = LOCAL_TIME ( 14, 1, 51.00000000000000000, #211 ) ;
#100 = CC_DESIGN_PERSON_AND_ORGANIZATION_ASSIGNMENT ( #43, #115, ( #166 ) ) ;
#101 = DIRECTION ( 'NONE',  ( 0.0000000000000000000, 1.000000000000000000, 0.0000000000000000000 ) ) ;
#102 = AXIS2_PLACEMENT_3D ( 'NONE', #76, #197, #28 ) ;
#103 = DIRECTION ( 'NONE',  ( 0.0000000000000000000, 1.000000000000000000, 0.0000000000000000000 ) ) ;
#104 = VERTEX_POINT ( 'NONE', #140 ) ;
#105 = PERSON_AND_ORGANIZATION ( #83, #212 ) ;
#106 = PRODUCT_DEFINITION_SHAPE ( 'NONE', 'NONE',  #148 ) ;
#107 = AXIS2_PLACEMENT_3D ( 'NONE', #64, #1, #80 ) ;
#108 = CARTESIAN_POINT ( 'NONE',  ( 3.715840734834924303E-14, 1.753999999999998671, 10.64259084960806412 ) ) ;
#109 = APPROVAL_DATE_TIME ( #36, #225 ) ;
#110 = AXIS2_PLACEMENT_3D ( 'NONE', #78, #118, #11 ) ;
#111 = CC_DESIGN_DATE_AND_TIME_ASSIGNMENT ( #237, #168, ( #200 ) ) ;
#112 = ORIENTED_EDGE ( 'NONE', *, *, #190, .F. ) ;
#113 = EDGE_CURVE ( 'NONE', #163, #163, #224, .T. ) ;
#114 = DIRECTION ( 'NONE',  ( -3.491481338843133355E-15, -5.605631856579067407E-16, -1.000000000000000000 ) ) ;
#115 = PERSON_AND_ORGANIZATION_ROLE ( 'design_supplier' ) ;
#116 = CARTESIAN_POINT ( 'NONE',  ( 8.728703347107866915E-16, 1.401407964144772029E-16, 0.2500000000000009437 ) ) ;
#117 = DIRECTION ( 'NONE',  ( 3.664998382197393967E-31, 1.000000000000000000, 1.049697256412017316E-16 ) ) ;
#118 = DIRECTION ( 'NONE',  ( -3.491481338843133355E-15, 1.049697256412017316E-16, -1.000000000000000000 ) ) ;
#119 = CC_DESIGN_PERSON_AND_ORGANIZATION_ASSIGNMENT ( #53, #20, ( #81 ) ) ;
#120 = DIRECTION ( 'NONE',  ( -1.957195901967040080E-30, 1.000000000000000000, -5.605631856579067407E-16 ) ) ;
#121 = APPLICATION_PROTOCOL_DEFINITION ( 'international standard', 'config_control_design', 1994, #39 ) ;
#122 =( NAMED_UNIT ( * ) SI_UNIT ( $, .STERADIAN. ) SOLID_ANGLE_UNIT ( ) );
#123 = AXIS2_PLACEMENT_3D ( 'NONE', #47, #75, #117 ) ;
#124 = FACE_OUTER_BOUND ( 'NONE', #191, .T. ) ;
#125 = CALENDAR_DATE ( 2021, 26, 11 ) ;
#126 = DIRECTION ( 'NONE',  ( 3.491481338843133355E-15, 5.605631856579067407E-16, 1.000000000000000000 ) ) ;
#127 = APPROVAL_ROLE ( '' ) ;
#128 = ADVANCED_FACE ( 'NONE', ( #95 ), #137, .T. ) ;
#129 = PLANE ( 'NONE',  #110 ) ;
#130 = ORIENTED_EDGE ( 'NONE', *, *, #190, .T. ) ;
#131 = CC_DESIGN_APPROVAL ( #48, ( #148 ) ) ;
#132 = EDGE_LOOP ( 'NONE', ( #23 ) ) ;
#133 = CALENDAR_DATE ( 2021, 26, 11 ) ;
#134 = COORDINATED_UNIVERSAL_TIME_OFFSET ( 1, 0, .AHEAD. ) ;
#135 = DIRECTION ( 'NONE',  ( -3.491481338843133355E-15, 1.049697256412017316E-16, -1.000000000000000000 ) ) ;
#136 = AXIS2_PLACEMENT_3D ( 'NONE', #192, #8, #152 ) ;
#137 = PLANE ( 'NONE',  #186 ) ;
#138 = FACE_OUTER_BOUND ( 'NONE', #216, .T. ) ;
#139 = FACE_OUTER_BOUND ( 'NONE', #236, .T. ) ;
#140 = CARTESIAN_POINT ( 'NONE',  ( 8.728703347107831416E-16, 1.753999999999998671, 0.2499999999999999445 ) ) ;
#141 = CC_DESIGN_SECURITY_CLASSIFICATION ( #200, ( #166 ) ) ;
#142 = MECHANICAL_CONTEXT ( 'NONE', #193, 'mechanical' ) ;
#143 = MANIFOLD_SOLID_BREP ( 'Corps-Déplacer/Copier1[2]', #7 ) ;
#144 = EDGE_LOOP ( 'NONE', ( #213 ) ) ;
#145 = CALENDAR_DATE ( 2021, 26, 11 ) ;
#146 = CIRCLE ( 'NONE', #15, 1.753999999999998449 ) ;
#147 = ORIENTED_EDGE ( 'NONE', *, *, #52, .T. ) ;
#148 = PRODUCT_DEFINITION ( 'UNKNOWN', '', #166, #222 ) ;
#149 = ORIENTED_EDGE ( 'NONE', *, *, #65, .T. ) ;
#150 = ORIENTED_EDGE ( 'NONE', *, *, #85, .F. ) ;
#151 = APPROVAL_DATE_TIME ( #40, #206 ) ;
#152 = DIRECTION ( 'NONE',  ( -1.957195901967040080E-30, 1.000000000000000000, -5.605631856579067407E-16 ) ) ;
#153 = FACE_BOUND ( 'NONE', #73, .T. ) ;
#154 = CARTESIAN_POINT ( 'NONE',  ( 3.715840734834924934E-14, 5.965844630309985930E-15, 10.64259084960806589 ) ) ;
#155 = AXIS2_PLACEMENT_3D ( 'NONE', #31, #177, #59 ) ;
#156 = CC_DESIGN_PERSON_AND_ORGANIZATION_ASSIGNMENT ( #92, #60, ( #200 ) ) ;
#157 = PLANE ( 'NONE',  #241 ) ;
#158 = UNCERTAINTY_MEASURE_WITH_UNIT (LENGTH_MEASURE( 1.000000000000000082E-05 ), #2, 'distance_accuracy_value', 'NONE');
#159 = DIRECTION ( 'NONE',  ( 0.0000000000000000000, 1.000000000000000000, 0.0000000000000000000 ) ) ;
#160 = CARTESIAN_POINT ( 'NONE',  ( 3.869445280877825183E-14, 1.499999999999991562, 11.08253175473057617 ) ) ;
#161 = APPROVAL_DATE_TIME ( #204, #48 ) ;
#162 = CC_DESIGN_DATE_AND_TIME_ASSIGNMENT ( #4, #18, ( #148 ) ) ;
#163 = VERTEX_POINT ( 'NONE', #210 ) ;
#164 = AXIS2_PLACEMENT_3D ( 'NONE', #154, #16, #97 ) ;
#165 = EDGE_LOOP ( 'NONE', ( #167 ) ) ;
#166 = PRODUCT_DEFINITION_FORMATION_WITH_SPECIFIED_SOURCE ( 'ANY', '', #81, .NOT_KNOWN. ) ;
#167 = ORIENTED_EDGE ( 'NONE', *, *, #52, .F. ) ;
#168 = DATE_TIME_ROLE ( 'classification_date' ) ;
#169 = EDGE_CURVE ( 'NONE', #104, #104, #146, .T. ) ;
#170 = CONICAL_SURFACE ( 'NONE', #74, 1.609662432702592572, 0.5235987755982971503 ) ;
#171 = DIRECTION ( 'NONE',  ( -3.491481338843133355E-15, 1.049697256412017316E-16, -1.000000000000000000 ) ) ;
#172 = CARTESIAN_POINT ( 'NONE',  ( -1.669849149737063644E-30, 1.609662432702592572, -4.782638048669481662E-16 ) ) ;
#173 = ADVANCED_FACE ( 'NONE', ( #240, #223 ), #62, .T. ) ;
#174 = FACE_OUTER_BOUND ( 'NONE', #144, .T. ) ;
#175 = ADVANCED_FACE ( 'NONE', ( #221, #195 ), #220, .T. ) ;
#176 = CIRCLE ( 'NONE', #232, 1.753999999999999782 ) ;
#177 = DIRECTION ( 'NONE',  ( -3.491481338843133355E-15, -5.605631856579067407E-16, -1.000000000000000000 ) ) ;
#178 = PERSON_AND_ORGANIZATION ( #83, #212 ) ;
#179 = APPROVAL_STATUS ( 'not_yet_approved' ) ;
#180 = CLOSED_SHELL ( 'NONE', ( #239, #175, #173, #218, #29 ) ) ;
#181 =( NAMED_UNIT ( * ) PLANE_ANGLE_UNIT ( ) SI_UNIT ( $, .RADIAN. ) );
#182 = ORIENTED_EDGE ( 'NONE', *, *, #169, .T. ) ;
#183 = CARTESIAN_POINT ( 'NONE',  ( -1.892735826383158072E-31, 1.609662432702592572, -5.421010862427522170E-17 ) ) ;
#184 = ORIENTED_EDGE ( 'NONE', *, *, #228, .T. ) ;
#185 = PERSON_AND_ORGANIZATION ( #83, #212 ) ;
#186 = AXIS2_PLACEMENT_3D ( 'NONE', #172, #49, #120 ) ;
#187 = ORIENTED_EDGE ( 'NONE', *, *, #228, .F. ) ;
#188 = APPROVAL_PERSON_ORGANIZATION ( #185, #206, #25 ) ;
#189 = LOCAL_TIME ( 14, 1, 51.00000000000000000, #89 ) ;
#190 = EDGE_CURVE ( 'NONE', #37, #37, #61, .T. ) ;
#191 = EDGE_LOOP ( 'NONE', ( #235 ) ) ;
#192 = CARTESIAN_POINT ( 'NONE',  ( 0.0000000000000000000, 0.0000000000000000000, 0.0000000000000000000 ) ) ;
#193 = APPLICATION_CONTEXT ( 'configuration controlled 3d designs of mechanical parts and assemblies' ) ;
#194 = CALENDAR_DATE ( 2021, 26, 11 ) ;
#195 = FACE_OUTER_BOUND ( 'NONE', #71, .T. ) ;
#196 = ADVANCED_FACE ( 'NONE', ( #201, #27 ), #41, .T. ) ;
#197 = DIRECTION ( 'NONE',  ( -3.491481338843133355E-15, 1.049697256412017316E-16, -1.000000000000000000 ) ) ;
#198 = MANIFOLD_SOLID_BREP ( 'Corps-Déplacer/Copier1[1]', #180 ) ;
#199 = CIRCLE ( 'NONE', #107, 1.199999999999997513 ) ;
#200 = SECURITY_CLASSIFICATION ( '', '', #214 ) ;
#201 = FACE_OUTER_BOUND ( 'NONE', #24, .T. ) ;
#202 = CONICAL_SURFACE ( 'NONE', #91, 1.753999999999999782, 0.5235987755982944858 ) ;
#203 = CARTESIAN_POINT ( 'NONE',  ( 2.444036937190193601E-13, -7.347880794884121511E-15, 70.00000000000000000 ) ) ;
#204 = DATE_AND_TIME ( #145, #3 ) ;
#205 = VERTEX_POINT ( 'NONE', #70 ) ;
#206 = APPROVAL ( #56, 'UNSPECIFIED' ) ;
#207 = CARTESIAN_POINT ( 'NONE',  ( 3.715840734834924303E-14, 5.965844630309985141E-15, 10.64259084960806412 ) ) ;
#208 = CARTESIAN_POINT ( 'NONE',  ( 2.433562493173664138E-13, 1.499999999999990230, 69.70000000000001705 ) ) ;
#209 = FACE_OUTER_BOUND ( 'NONE', #22, .T. ) ;
#210 = CARTESIAN_POINT ( 'NONE',  ( 3.715840734834924303E-14, 1.753999999999998671, 10.64259084960806412 ) ) ;
#211 = COORDINATED_UNIVERSAL_TIME_OFFSET ( 1, 0, .AHEAD. ) ;
#212 = ORGANIZATION ( 'UNSPECIFIED', 'UNSPECIFIED', '' ) ;
#213 = ORIENTED_EDGE ( 'NONE', *, *, #65, .F. ) ;
#214 = SECURITY_CLASSIFICATION_LEVEL ( 'unclassified' ) ;
#215 = CC_DESIGN_APPROVAL ( #225, ( #166 ) ) ;
#216 = EDGE_LOOP ( 'NONE', ( #182 ) ) ;
#217 = DIRECTION ( 'NONE',  ( 3.491481338843133355E-15, 5.605631856579067407E-16, 1.000000000000000000 ) ) ;
#218 = ADVANCED_FACE ( 'NONE', ( #153, #174 ), #202, .T. ) ;
#219 = FACE_BOUND ( 'NONE', #90, .T. ) ;
#220 = CONICAL_SURFACE ( 'NONE', #102, 1.499999999999997558, 0.7853981633974573828 ) ;
#221 = FACE_BOUND ( 'NONE', #230, .T. ) ;
#222 = DESIGN_CONTEXT ( 'detailed design', #39, 'design' ) ;
#223 = FACE_OUTER_BOUND ( 'NONE', #165, .T. ) ;
#224 = CIRCLE ( 'NONE', #164, 1.753999999999992454 ) ;
#225 = APPROVAL ( #179, 'UNSPECIFIED' ) ;
#226 = DIRECTION ( 'NONE',  ( 3.491481338843133355E-15, -1.049697256412017316E-16, 1.000000000000000000 ) ) ;
#227 = CC_DESIGN_PERSON_AND_ORGANIZATION_ASSIGNMENT ( #178, #17, ( #166 ) ) ;
#228 = EDGE_CURVE ( 'NONE', #205, #205, #199, .T. ) ;
#229 = CARTESIAN_POINT ( 'NONE',  ( 0.0000000000000000000, 0.0000000000000000000, 0.0000000000000000000 ) ) ;
#230 = EDGE_LOOP ( 'NONE', ( #184 ) ) ;
#231 = COORDINATED_UNIVERSAL_TIME_OFFSET ( 1, 0, .AHEAD. ) ;
#232 = AXIS2_PLACEMENT_3D ( 'NONE', #57, #171, #46 ) ;
#233 = EDGE_LOOP ( 'NONE', ( #69 ) ) ;
#234 = APPROVAL_STATUS ( 'not_yet_approved' ) ;
#235 = ORIENTED_EDGE ( 'NONE', *, *, #113, .F. ) ;
#236 = EDGE_LOOP ( 'NONE', ( #187 ) ) ;
#237 = DATE_AND_TIME ( #194, #45 ) ;
#238 = CARTESIAN_POINT ( 'NONE',  ( 3.869445280877825183E-14, -1.163330317703974635E-15, 11.08253175473057617 ) ) ;
#239 = ADVANCED_FACE ( 'NONE', ( #139 ), #157, .T. ) ;
#240 = FACE_OUTER_BOUND ( 'NONE', #21, .T. ) ;
#241 = AXIS2_PLACEMENT_3D ( 'NONE', #203, #226, #242 ) ;
#242 = DIRECTION ( 'NONE',  ( -3.664998382197393967E-31, -1.000000000000000000, -1.049697256412017316E-16 ) ) ;
#243 = CIRCLE ( 'NONE', #155, 1.609662432702592572 ) ;
ENDSEC;
END-ISO-10303-21;
