ISO-10303-21;
HEADER;
FILE_DESCRIPTION (( 'STEP AP203' ),
    '1' );
FILE_NAME ('321253.step',
    '2021-11-26T13:01:50',
    ( '' ),
    ( '' ),
    'SwSTEP 2.0',
    'SolidWorks 2019',
    '' );
FILE_SCHEMA (( 'CONFIG_CONTROL_DESIGN' ));
ENDSEC;

DATA;
#1 = DIRECTION ( 'NONE',  ( -3.491481338843133355E-15, 1.049697256412017316E-16, -1.000000000000000000 ) ) ;
#2 = FACE_OUTER_BOUND ( 'NONE', #107, .T. ) ;
#3 = PRODUCT_RELATED_PRODUCT_CATEGORY ( 'detail', '', ( #32 ) ) ;
#4 = CARTESIAN_POINT ( 'NONE',  ( 3.869445280877825183E-14, -1.163330317703974635E-15, 11.08253175473057617 ) ) ;
#5 = CONICAL_SURFACE ( 'NONE', #156, 1.499999999999997558, 0.7853981633974573828 ) ;
#6 = FACE_OUTER_BOUND ( 'NONE', #176, .T. ) ;
#7 = CARTESIAN_POINT ( 'NONE',  ( 2.947695840125658788E-30, 4.727045889052388110E-31, 8.442536430976165643E-16 ) ) ;
#8 = CIRCLE ( 'NONE', #183, 1.604662432702592678 ) ;
#9 = FACE_OUTER_BOUND ( 'NONE', #74, .T. ) ;
#10 = DIRECTION ( 'NONE',  ( -3.491481338843133355E-15, -5.599082607104397282E-16, -1.000000000000000000 ) ) ;
#11 = APPROVAL_STATUS ( 'not_yet_approved' ) ;
#12 = AXIS2_PLACEMENT_3D ( 'NONE', #216, #38, #39 ) ;
#13 = SECURITY_CLASSIFICATION ( '', '', #126 ) ;
#14 = APPROVAL_STATUS ( 'not_yet_approved' ) ;
#15 = ORIENTED_EDGE ( 'NONE', *, *, #234, .F. ) ;
#16 = APPROVAL_DATE_TIME ( #90, #137 ) ;
#17 = ORIENTED_EDGE ( 'NONE', *, *, #169, .T. ) ;
#18 = ORGANIZATION ( 'UNSPECIFIED', 'UNSPECIFIED', '' ) ;
#19 = LOCAL_TIME ( 14, 1, 50.00000000000000000, #43 ) ;
#20 = EDGE_LOOP ( 'NONE', ( #70 ) ) ;
#21 = FACE_OUTER_BOUND ( 'NONE', #22, .T. ) ;
#22 = EDGE_LOOP ( 'NONE', ( #118 ) ) ;
#23 = EDGE_LOOP ( 'NONE', ( #221 ) ) ;
#24 = DIRECTION ( 'NONE',  ( -3.491481338843133355E-15, 1.049697256412017316E-16, -1.000000000000000000 ) ) ;
#25 = FACE_OUTER_BOUND ( 'NONE', #85, .T. ) ;
#26 = CC_DESIGN_PERSON_AND_ORGANIZATION_ASSIGNMENT ( #167, #84, ( #13 ) ) ;
#27 = DIRECTION ( 'NONE',  ( 0.0000000000000000000, 1.000000000000000000, 0.0000000000000000000 ) ) ;
#28 = CARTESIAN_POINT ( 'NONE',  ( 2.444036937190193601E-13, -7.347880794884121511E-15, 70.00000000000000000 ) ) ;
#29 = CARTESIAN_POINT ( 'NONE',  ( 2.444036937190193601E-13, 1.199999999999990186, 70.00000000000000000 ) ) ;
#30 = VERTEX_POINT ( 'NONE', #105 ) ;
#31 = CALENDAR_DATE ( 2021, 26, 11 ) ;
#32 = PRODUCT ( '321253', '321253', '', ( #233 ) ) ;
#33 = CIRCLE ( 'NONE', #165, 1.499999999999992673 ) ;
#34 = EDGE_CURVE ( 'NONE', #30, #30, #83, .T. ) ;
#35 = DIRECTION ( 'NONE',  ( 3.664998382197393967E-31, 1.000000000000000000, 1.049697256412017316E-16 ) ) ;
#36 = CARTESIAN_POINT ( 'NONE',  ( 3.718864446371202438E-14, 1.748999999999998778, 10.65125110364590988 ) ) ;
#37 = ADVANCED_FACE ( 'NONE', ( #57 ), #173, .T. ) ;
#38 = DIRECTION ( 'NONE',  ( -3.491481338843133355E-15, 1.049697256412017316E-16, -1.000000000000000000 ) ) ;
#39 = DIRECTION ( 'NONE',  ( 0.0000000000000000000, 1.000000000000000000, 0.0000000000000000000 ) ) ;
#40 = CC_DESIGN_PERSON_AND_ORGANIZATION_ASSIGNMENT ( #59, #218, ( #160 ) ) ;
#41 = ORIENTED_EDGE ( 'NONE', *, *, #150, .T. ) ;
#42 = CLOSED_SHELL ( 'NONE', ( #210, #111, #185, #91 ) ) ;
#43 = COORDINATED_UNIVERSAL_TIME_OFFSET ( 1, 0, .AHEAD. ) ;
#44 = APPLICATION_PROTOCOL_DEFINITION ( 'international standard', 'config_control_design', 1994, #182 ) ;
#45 = CIRCLE ( 'NONE', #211, 1.748999999999998556 ) ;
#46 = CC_DESIGN_DATE_AND_TIME_ASSIGNMENT ( #220, #69, ( #160 ) ) ;
#47 = DIRECTION ( 'NONE',  ( -3.523714020605591751E-30, 1.000000000000000000, -9.918373218849709546E-16 ) ) ;
#48 = APPROVAL_DATE_TIME ( #143, #115 ) ;
#49 = EDGE_LOOP ( 'NONE', ( #109 ) ) ;
#50 = PERSON_AND_ORGANIZATION_ROLE ( 'design_supplier' ) ;
#51 = CONICAL_SURFACE ( 'NONE', #66, 1.748999999999999888, 0.5235987755982938197 ) ;
#52 = CARTESIAN_POINT ( 'NONE',  ( 2.444036937190193601E-13, -7.347880794884121511E-15, 70.00000000000000000 ) ) ;
#53 = EDGE_CURVE ( 'NONE', #180, #180, #45, .T. ) ;
#54 = CYLINDRICAL_SURFACE ( 'NONE', #227, 1.748999999999995891 ) ;
#55 = CLOSED_SHELL ( 'NONE', ( #79, #142, #163, #196, #37 ) ) ;
#56 = FACE_OUTER_BOUND ( 'NONE', #20, .T. ) ;
#57 = FACE_OUTER_BOUND ( 'NONE', #241, .T. ) ;
#58 = DIRECTION ( 'NONE',  ( 3.491481338843133355E-15, -1.049697256412017316E-16, 1.000000000000000000 ) ) ;
#59 = PERSON_AND_ORGANIZATION ( #124, #18 ) ;
#60 = CARTESIAN_POINT ( 'NONE',  ( 3.718864446371201807E-14, 1.748999999999998778, 10.65125110364590810 ) ) ;
#61 = CARTESIAN_POINT ( 'NONE',  ( 3.718864446371202438E-14, 5.963723479832533475E-15, 10.65125110364590988 ) ) ;
#62 =( NAMED_UNIT ( * ) PLANE_ANGLE_UNIT ( ) SI_UNIT ( $, .RADIAN. ) );
#63 = CC_DESIGN_APPROVAL ( #137, ( #13 ) ) ;
#64 = APPROVAL ( #11, 'UNSPECIFIED' ) ;
#65 = COORDINATED_UNIVERSAL_TIME_OFFSET ( 1, 0, .AHEAD. ) ;
#66 = AXIS2_PLACEMENT_3D ( 'NONE', #93, #122, #139 ) ;
#67 = PRODUCT_DEFINITION_FORMATION_WITH_SPECIFIED_SOURCE ( 'ANY', '', #32, .NOT_KNOWN. ) ;
#68 = EDGE_LOOP ( 'NONE', ( #86 ) ) ;
#69 = DATE_TIME_ROLE ( 'creation_date' ) ;
#70 = ORIENTED_EDGE ( 'NONE', *, *, #53, .F. ) ;
#71 = DESIGN_CONTEXT ( 'detailed design', #171, 'design' ) ;
#72 = CC_DESIGN_PERSON_AND_ORGANIZATION_ASSIGNMENT ( #103, #81, ( #32 ) ) ;
#73 = DIRECTION ( 'NONE',  ( -1.982089136590638879E-30, 1.000000000000000000, -5.579084935602943377E-16 ) ) ;
#74 = EDGE_LOOP ( 'NONE', ( #149 ) ) ;
#75 = CC_DESIGN_APPROVAL ( #115, ( #67 ) ) ;
#76 = DIRECTION ( 'NONE',  ( 3.664998382197393967E-31, 1.000000000000000000, 1.049697256412017316E-16 ) ) ;
#77 = EDGE_CURVE ( 'NONE', #125, #125, #33, .T. ) ;
#78 = DATE_AND_TIME ( #205, #181 ) ;
#79 = ADVANCED_FACE ( 'NONE', ( #114 ), #148, .T. ) ;
#80 = DIRECTION ( 'NONE',  ( 1.000000000000000000, 0.0000000000000000000, 0.0000000000000000000 ) ) ;
#81 = PERSON_AND_ORGANIZATION_ROLE ( 'design_owner' ) ;
#82 = APPROVAL_ROLE ( '' ) ;
#83 = CIRCLE ( 'NONE', #130, 1.748999999999999888 ) ;
#84 = PERSON_AND_ORGANIZATION_ROLE ( 'classification_officer' ) ;
#85 = EDGE_LOOP ( 'NONE', ( #191 ) ) ;
#86 = ORIENTED_EDGE ( 'NONE', *, *, #225, .T. ) ;
#87 =( GEOMETRIC_REPRESENTATION_CONTEXT ( 3 ) GLOBAL_UNCERTAINTY_ASSIGNED_CONTEXT ( ( #129 ) ) GLOBAL_UNIT_ASSIGNED_CONTEXT ( ( #138, #62, #121 ) ) REPRESENTATION_CONTEXT ( 'NONE', 'WORKASPACE' ) );
#88 = LOCAL_TIME ( 14, 1, 50.00000000000000000, #128 ) ;
#89 = CC_DESIGN_DATE_AND_TIME_ASSIGNMENT ( #208, #106, ( #13 ) ) ;
#90 = DATE_AND_TIME ( #108, #88 ) ;
#91 = ADVANCED_FACE ( 'NONE', ( #153 ), #213, .T. ) ;
#92 = AXIS2_PLACEMENT_3D ( 'NONE', #52, #58, #135 ) ;
#93 = CARTESIAN_POINT ( 'NONE',  ( 3.718864446371201807E-14, -1.118058906085258103E-15, 10.65125110364590810 ) ) ;
#94 = DIRECTION ( 'NONE',  ( -3.491481338843133355E-15, 1.049697256412017316E-16, -1.000000000000000000 ) ) ;
#95 = DIRECTION ( 'NONE',  ( -3.491481338843133355E-15, -5.599082607104397282E-16, -1.000000000000000000 ) ) ;
#96 = CONICAL_SURFACE ( 'NONE', #222, 1.604662432702592678, 0.5235987755982971503 ) ;
#97 = DIRECTION ( 'NONE',  ( -1.954909243734615899E-30, 1.000000000000000000, -5.599082607104397282E-16 ) ) ;
#98 = FACE_BOUND ( 'NONE', #23, .T. ) ;
#99 = MANIFOLD_SOLID_BREP ( 'Corps-Déplacer/Copier1[2]', #42 ) ;
#100 = CARTESIAN_POINT ( 'NONE',  ( 3.718864446371202438E-14, 5.963723479832533475E-15, 10.65125110364590988 ) ) ;
#101 = VERTEX_POINT ( 'NONE', #60 ) ;
#102 = CIRCLE ( 'NONE', #152, 1.748999999999992783 ) ;
#103 = PERSON_AND_ORGANIZATION ( #124, #18 ) ;
#104 = DIRECTION ( 'NONE',  ( 1.954909243734616250E-30, -1.000000000000000000, 5.599082607104397282E-16 ) ) ;
#105 = CARTESIAN_POINT ( 'NONE',  ( 3.718864446371201807E-14, 1.748999999999998778, 10.65125110364590810 ) ) ;
#106 = DATE_TIME_ROLE ( 'classification_date' ) ;
#107 = EDGE_LOOP ( 'NONE', ( #41 ) ) ;
#108 = CALENDAR_DATE ( 2021, 26, 11 ) ;
#109 = ORIENTED_EDGE ( 'NONE', *, *, #169, .F. ) ;
#110 = CC_DESIGN_PERSON_AND_ORGANIZATION_ASSIGNMENT ( #189, #50, ( #67 ) ) ;
#111 = ADVANCED_FACE ( 'NONE', ( #232, #56 ), #54, .T. ) ;
#112 = CARTESIAN_POINT ( 'NONE',  ( 0.0000000000000000000, 0.0000000000000000000, 0.0000000000000000000 ) ) ;
#113 = ORIENTED_EDGE ( 'NONE', *, *, #77, .T. ) ;
#114 = FACE_OUTER_BOUND ( 'NONE', #170, .T. ) ;
#115 = APPROVAL ( #14, 'UNSPECIFIED' ) ;
#116 = FACE_OUTER_BOUND ( 'NONE', #145, .T. ) ;
#117 = AXIS2_PLACEMENT_3D ( 'NONE', #184, #120, #80 ) ;
#118 = ORIENTED_EDGE ( 'NONE', *, *, #34, .F. ) ;
#119 = CC_DESIGN_SECURITY_CLASSIFICATION ( #13, ( #67 ) ) ;
#120 = DIRECTION ( 'NONE',  ( 0.0000000000000000000, 0.0000000000000000000, 1.000000000000000000 ) ) ;
#121 =( NAMED_UNIT ( * ) SI_UNIT ( $, .STERADIAN. ) SOLID_ANGLE_UNIT ( ) );
#122 = DIRECTION ( 'NONE',  ( -3.491481338843133355E-15, 1.049697256412017316E-16, -1.000000000000000000 ) ) ;
#123 = DIRECTION ( 'NONE',  ( -3.491481338843133355E-15, 1.049697256412017316E-16, -1.000000000000000000 ) ) ;
#124 = PERSON ( 'UNSPECIFIED', 'UNSPECIFIED', 'UNSPECIFIED', ('UNSPECIFIED'), ('UNSPECIFIED'), ('UNSPECIFIED') ) ;
#125 = VERTEX_POINT ( 'NONE', #159 ) ;
#126 = SECURITY_CLASSIFICATION_LEVEL ( 'unclassified' ) ;
#127 = AXIS2_PLACEMENT_3D ( 'NONE', #230, #174, #229 ) ;
#128 = COORDINATED_UNIVERSAL_TIME_OFFSET ( 1, 0, .AHEAD. ) ;
#129 = UNCERTAINTY_MEASURE_WITH_UNIT (LENGTH_MEASURE( 1.000000000000000082E-05 ), #138, 'distance_accuracy_value', 'NONE');
#130 = AXIS2_PLACEMENT_3D ( 'NONE', #197, #94, #212 ) ;
#131 = DIRECTION ( 'NONE',  ( 1.954909243734616250E-30, -1.000000000000000000, 5.599082607104398268E-16 ) ) ;
#132 = CYLINDRICAL_SURFACE ( 'NONE', #144, 1.499999999999995337 ) ;
#133 = AXIS2_PLACEMENT_3D ( 'NONE', #28, #123, #27 ) ;
#134 = DIRECTION ( 'NONE',  ( -3.491481338843133355E-15, -5.599082607104397282E-16, -1.000000000000000000 ) ) ;
#135 = DIRECTION ( 'NONE',  ( -3.664998382197393967E-31, -1.000000000000000000, -1.049697256412017316E-16 ) ) ;
#136 = DIRECTION ( 'NONE',  ( -3.491481338843133355E-15, 1.049697256412017316E-16, -1.000000000000000000 ) ) ;
#137 = APPROVAL ( #161, 'UNSPECIFIED' ) ;
#138 =( LENGTH_UNIT ( ) NAMED_UNIT ( * ) SI_UNIT ( .MILLI., .METRE. ) );
#139 = DIRECTION ( 'NONE',  ( 0.0000000000000000000, 1.000000000000000000, 0.0000000000000000000 ) ) ;
#140 = VERTEX_POINT ( 'NONE', #29 ) ;
#141 = PERSON_AND_ORGANIZATION ( #124, #18 ) ;
#142 = ADVANCED_FACE ( 'NONE', ( #98, #6 ), #5, .T. ) ;
#143 = DATE_AND_TIME ( #223, #166 ) ;
#144 = AXIS2_PLACEMENT_3D ( 'NONE', #199, #24, #76 ) ;
#145 = EDGE_LOOP ( 'NONE', ( #168 ) ) ;
#146 = APPROVAL_ROLE ( '' ) ;
#147 = APPROVAL_PERSON_ORGANIZATION ( #209, #115, #238 ) ;
#148 = PLANE ( 'NONE',  #92 ) ;
#149 = ORIENTED_EDGE ( 'NONE', *, *, #225, .F. ) ;
#150 = EDGE_CURVE ( 'NONE', #236, #236, #195, .T. ) ;
#151 = CARTESIAN_POINT ( 'NONE',  ( 8.728703347107866915E-16, 1.399770651776104497E-16, 0.2500000000000009437 ) ) ;
#152 = AXIS2_PLACEMENT_3D ( 'NONE', #100, #10, #47 ) ;
#153 = FACE_OUTER_BOUND ( 'NONE', #224, .T. ) ;
#154 = CARTESIAN_POINT ( 'NONE',  ( 2.947695840125658788E-30, 4.727045889052388110E-31, 8.442536430976165643E-16 ) ) ;
#155 = APPROVAL_DATE_TIME ( #78, #64 ) ;
#156 = AXIS2_PLACEMENT_3D ( 'NONE', #198, #136, #215 ) ;
#157 = APPROVAL_PERSON_ORGANIZATION ( #141, #64, #82 ) ;
#158 = CARTESIAN_POINT ( 'NONE',  ( 8.728703347107831416E-16, 1.748999999999998778, 0.2499999999999999445 ) ) ;
#159 = CARTESIAN_POINT ( 'NONE',  ( 3.869445280877825183E-14, 1.499999999999991562, 11.08253175473057617 ) ) ;
#160 = PRODUCT_DEFINITION ( 'UNKNOWN', '', #67, #71 ) ;
#161 = APPROVAL_STATUS ( 'not_yet_approved' ) ;
#162 = PRODUCT_DEFINITION_SHAPE ( 'NONE', 'NONE',  #160 ) ;
#163 = ADVANCED_FACE ( 'NONE', ( #2, #116 ), #132, .T. ) ;
#164 = PERSON_AND_ORGANIZATION_ROLE ( 'creator' ) ;
#165 = AXIS2_PLACEMENT_3D ( 'NONE', #4, #231, #178 ) ;
#166 = LOCAL_TIME ( 14, 1, 50.00000000000000000, #65 ) ;
#167 = PERSON_AND_ORGANIZATION ( #124, #18 ) ;
#168 = ORIENTED_EDGE ( 'NONE', *, *, #77, .F. ) ;
#169 = EDGE_CURVE ( 'NONE', #202, #202, #8, .T. ) ;
#170 = EDGE_LOOP ( 'NONE', ( #15 ) ) ;
#171 = APPLICATION_CONTEXT ( 'configuration controlled 3d designs of mechanical parts and assemblies' ) ;
#172 = CC_DESIGN_APPROVAL ( #64, ( #160 ) ) ;
#173 = PLANE ( 'NONE',  #206 ) ;
#174 = DIRECTION ( 'NONE',  ( -3.491481338843133355E-15, -5.599082607104397282E-16, -1.000000000000000000 ) ) ;
#175 = ADVANCED_BREP_SHAPE_REPRESENTATION ( '321253', ( #188, #99, #117 ), #87 ) ;
#176 = EDGE_LOOP ( 'NONE', ( #187 ) ) ;
#177 = APPROVAL_PERSON_ORGANIZATION ( #240, #137, #146 ) ;
#178 = DIRECTION ( 'NONE',  ( 0.0000000000000000000, 1.000000000000000000, 0.0000000000000000000 ) ) ;
#179 = FACE_BOUND ( 'NONE', #49, .T. ) ;
#180 = VERTEX_POINT ( 'NONE', #158 ) ;
#181 = LOCAL_TIME ( 14, 1, 50.00000000000000000, #219 ) ;
#182 = APPLICATION_CONTEXT ( 'configuration controlled 3d designs of mechanical parts and assemblies' ) ;
#183 = AXIS2_PLACEMENT_3D ( 'NONE', #154, #217, #200 ) ;
#184 = CARTESIAN_POINT ( 'NONE',  ( 0.0000000000000000000, 0.0000000000000000000, 0.0000000000000000000 ) ) ;
#185 = ADVANCED_FACE ( 'NONE', ( #25, #179 ), #96, .T. ) ;
#186 = SHAPE_DEFINITION_REPRESENTATION ( #162, #175 ) ;
#187 = ORIENTED_EDGE ( 'NONE', *, *, #150, .F. ) ;
#188 = MANIFOLD_SOLID_BREP ( 'Corps-Déplacer/Copier1[1]', #55 ) ;
#189 = PERSON_AND_ORGANIZATION ( #124, #18 ) ;
#190 = EDGE_LOOP ( 'NONE', ( #113 ) ) ;
#191 = ORIENTED_EDGE ( 'NONE', *, *, #53, .T. ) ;
#192 = CIRCLE ( 'NONE', #133, 1.199999999999997513 ) ;
#193 = LOCAL_TIME ( 14, 1, 50.00000000000000000, #242 ) ;
#194 = FACE_BOUND ( 'NONE', #190, .T. ) ;
#195 = CIRCLE ( 'NONE', #12, 1.499999999999997558 ) ;
#196 = ADVANCED_FACE ( 'NONE', ( #194, #21 ), #51, .T. ) ;
#197 = CARTESIAN_POINT ( 'NONE',  ( 3.718864446371201807E-14, -1.118058906085258103E-15, 10.65125110364590810 ) ) ;
#198 = CARTESIAN_POINT ( 'NONE',  ( 2.433562493173664138E-13, -7.316389877191761450E-15, 69.70000000000001705 ) ) ;
#199 = CARTESIAN_POINT ( 'NONE',  ( 0.0000000000000000000, 0.0000000000000000000, 0.0000000000000000000 ) ) ;
#200 = DIRECTION ( 'NONE',  ( -1.954909243734616250E-30, 1.000000000000000000, -5.599082607104398268E-16 ) ) ;
#201 = PLANE ( 'NONE',  #214 ) ;
#202 = VERTEX_POINT ( 'NONE', #203 ) ;
#203 = CARTESIAN_POINT ( 'NONE',  ( -1.892735826383161356E-31, 1.604662432702592678, -5.421010862427522170E-17 ) ) ;
#204 = APPLICATION_PROTOCOL_DEFINITION ( 'international standard', 'config_control_design', 1994, #171 ) ;
#205 = CALENDAR_DATE ( 2021, 26, 11 ) ;
#206 = AXIS2_PLACEMENT_3D ( 'NONE', #36, #1, #35 ) ;
#207 = CALENDAR_DATE ( 2021, 26, 11 ) ;
#208 = DATE_AND_TIME ( #207, #193 ) ;
#209 = PERSON_AND_ORGANIZATION ( #124, #18 ) ;
#210 = ADVANCED_FACE ( 'NONE', ( #9 ), #201, .T. ) ;
#211 = AXIS2_PLACEMENT_3D ( 'NONE', #151, #95, #73 ) ;
#212 = DIRECTION ( 'NONE',  ( 0.0000000000000000000, 1.000000000000000000, 0.0000000000000000000 ) ) ;
#213 = PLANE ( 'NONE',  #127 ) ;
#214 = AXIS2_PLACEMENT_3D ( 'NONE', #61, #235, #104 ) ;
#215 = DIRECTION ( 'NONE',  ( 0.0000000000000000000, 1.000000000000000000, 0.0000000000000000000 ) ) ;
#216 = CARTESIAN_POINT ( 'NONE',  ( 2.433562493173664138E-13, -7.316389877191761450E-15, 69.70000000000001705 ) ) ;
#217 = DIRECTION ( 'NONE',  ( -3.491481338843133355E-15, -5.599082607104397282E-16, -1.000000000000000000 ) ) ;
#218 = PERSON_AND_ORGANIZATION_ROLE ( 'creator' ) ;
#219 = COORDINATED_UNIVERSAL_TIME_OFFSET ( 1, 0, .AHEAD. ) ;
#220 = DATE_AND_TIME ( #31, #19 ) ;
#221 = ORIENTED_EDGE ( 'NONE', *, *, #234, .T. ) ;
#222 = AXIS2_PLACEMENT_3D ( 'NONE', #7, #228, #131 ) ;
#223 = CALENDAR_DATE ( 2021, 26, 11 ) ;
#224 = EDGE_LOOP ( 'NONE', ( #17 ) ) ;
#225 = EDGE_CURVE ( 'NONE', #101, #101, #102, .T. ) ;
#226 = PERSON_AND_ORGANIZATION ( #124, #18 ) ;
#227 = AXIS2_PLACEMENT_3D ( 'NONE', #112, #134, #97 ) ;
#228 = DIRECTION ( 'NONE',  ( 3.491481338843133355E-15, 5.599082607104397282E-16, 1.000000000000000000 ) ) ;
#229 = DIRECTION ( 'NONE',  ( -1.954909243734616250E-30, 1.000000000000000000, -5.599082607104397282E-16 ) ) ;
#230 = CARTESIAN_POINT ( 'NONE',  ( -1.663121502701145683E-30, 1.604662432702592678, -4.763369301730835039E-16 ) ) ;
#231 = DIRECTION ( 'NONE',  ( -3.491481338843133355E-15, 1.049697256412017316E-16, -1.000000000000000000 ) ) ;
#232 = FACE_OUTER_BOUND ( 'NONE', #68, .T. ) ;
#233 = MECHANICAL_CONTEXT ( 'NONE', #182, 'mechanical' ) ;
#234 = EDGE_CURVE ( 'NONE', #140, #140, #192, .T. ) ;
#235 = DIRECTION ( 'NONE',  ( 3.491481338843133355E-15, 5.599082607104397282E-16, 1.000000000000000000 ) ) ;
#236 = VERTEX_POINT ( 'NONE', #237 ) ;
#237 = CARTESIAN_POINT ( 'NONE',  ( 2.433562493173664138E-13, 1.499999999999990230, 69.70000000000001705 ) ) ;
#238 = APPROVAL_ROLE ( '' ) ;
#239 = CC_DESIGN_PERSON_AND_ORGANIZATION_ASSIGNMENT ( #226, #164, ( #67 ) ) ;
#240 = PERSON_AND_ORGANIZATION ( #124, #18 ) ;
#241 = EDGE_LOOP ( 'NONE', ( #243 ) ) ;
#242 = COORDINATED_UNIVERSAL_TIME_OFFSET ( 1, 0, .AHEAD. ) ;
#243 = ORIENTED_EDGE ( 'NONE', *, *, #34, .T. ) ;
ENDSEC;
END-ISO-10303-21;
