ISO-10303-21;
HEADER;
FILE_DESCRIPTION (( 'STEP AP203' ),
    '1' );
FILE_NAME ('321252.step',
    '2021-11-26T13:01:50',
    ( '' ),
    ( '' ),
    'SwSTEP 2.0',
    'SolidWorks 2019',
    '' );
FILE_SCHEMA (( 'CONFIG_CONTROL_DESIGN' ));
ENDSEC;

DATA;
#1 = ADVANCED_FACE ( 'NONE', ( #211, #25 ), #31, .T. ) ;
#2 = EDGE_LOOP ( 'NONE', ( #197 ) ) ;
#3 = EDGE_LOOP ( 'NONE', ( #116 ) ) ;
#4 = PERSON_AND_ORGANIZATION ( #178, #11 ) ;
#5 = APPROVAL_STATUS ( 'not_yet_approved' ) ;
#6 = CC_DESIGN_DATE_AND_TIME_ASSIGNMENT ( #98, #169, ( #242 ) ) ;
#7 = CONICAL_SURFACE ( 'NONE', #100, 1.743999999999999773, 0.5235987755982941527 ) ;
#8 = FACE_OUTER_BOUND ( 'NONE', #136, .T. ) ;
#9 = DIRECTION ( 'NONE',  ( -3.664998382197393967E-31, -1.000000000000000000, -1.049697256412017316E-16 ) ) ;
#10 = DIRECTION ( 'NONE',  ( -3.491481338843133355E-15, -5.592543999024829500E-16, -1.000000000000000000 ) ) ;
#11 = ORGANIZATION ( 'UNSPECIFIED', 'UNSPECIFIED', '' ) ;
#12 = DIRECTION ( 'NONE',  ( 1.952626300925434370E-30, -1.000000000000000000, 5.592543999024829500E-16 ) ) ;
#13 = DIRECTION ( 'NONE',  ( 0.0000000000000000000, 1.000000000000000000, 0.0000000000000000000 ) ) ;
#14 = APPLICATION_CONTEXT ( 'configuration controlled 3d designs of mechanical parts and assemblies' ) ;
#15 = PERSON_AND_ORGANIZATION_ROLE ( 'creator' ) ;
#16 = CONICAL_SURFACE ( 'NONE', #164, 1.499999999999997558, 0.7853981633974573828 ) ;
#17 = APPLICATION_PROTOCOL_DEFINITION ( 'international standard', 'config_control_design', 1994, #14 ) ;
#18 = VERTEX_POINT ( 'NONE', #191 ) ;
#19 = CIRCLE ( 'NONE', #210, 1.743999999999999773 ) ;
#20 = PERSON_AND_ORGANIZATION_ROLE ( 'design_supplier' ) ;
#21 = EDGE_CURVE ( 'NONE', #208, #208, #55, .T. ) ;
#22 = AXIS2_PLACEMENT_3D ( 'NONE', #129, #207, #128 ) ;
#23 = DATE_AND_TIME ( #222, #229 ) ;
#24 = CARTESIAN_POINT ( 'NONE',  ( 2.934269356059128631E-30, 4.700019529300484076E-31, 8.404081452233591827E-16 ) ) ;
#25 = FACE_BOUND ( 'NONE', #3, .T. ) ;
#26 = CARTESIAN_POINT ( 'NONE',  ( 3.721888157907478680E-14, 5.961602329355088120E-15, 10.65991135768375209 ) ) ;
#27 = CARTESIAN_POINT ( 'NONE',  ( 3.721888157907479311E-14, -1.118967970575593827E-15, 10.65991135768375386 ) ) ;
#28 = CC_DESIGN_PERSON_AND_ORGANIZATION_ASSIGNMENT ( #132, #151, ( #242 ) ) ;
#29 = DIRECTION ( 'NONE',  ( 0.0000000000000000000, 1.000000000000000000, 0.0000000000000000000 ) ) ;
#30 = CARTESIAN_POINT ( 'NONE',  ( 2.444036937190193601E-13, -7.347880794884121511E-15, 70.00000000000000000 ) ) ;
#31 = CONICAL_SURFACE ( 'NONE', #119, 1.599662432702592563, 0.5235987755982971503 ) ;
#32 = DIRECTION ( 'NONE',  ( 0.0000000000000000000, 1.000000000000000000, 0.0000000000000000000 ) ) ;
#33 = VERTEX_POINT ( 'NONE', #109 ) ;
#34 = AXIS2_PLACEMENT_3D ( 'NONE', #143, #43, #175 ) ;
#35 = APPROVAL_STATUS ( 'not_yet_approved' ) ;
#36 =( NAMED_UNIT ( * ) SI_UNIT ( $, .STERADIAN. ) SOLID_ANGLE_UNIT ( ) );
#37 = APPROVAL_PERSON_ORGANIZATION ( #4, #103, #148 ) ;
#38 = CALENDAR_DATE ( 2021, 26, 11 ) ;
#39 = EDGE_LOOP ( 'NONE', ( #117 ) ) ;
#40 = CC_DESIGN_PERSON_AND_ORGANIZATION_ASSIGNMENT ( #209, #91, ( #87 ) ) ;
#41 = CC_DESIGN_APPROVAL ( #103, ( #242 ) ) ;
#42 = ORIENTED_EDGE ( 'NONE', *, *, #163, .T. ) ;
#43 = DIRECTION ( 'NONE',  ( -3.491481338843133355E-15, -5.592543999024829500E-16, -1.000000000000000000 ) ) ;
#44 = DIRECTION ( 'NONE',  ( -1.987771731592332401E-30, 1.000000000000000000, -5.595080018560521122E-16 ) ) ;
#45 = CIRCLE ( 'NONE', #53, 1.499999999999992673 ) ;
#46 = DIRECTION ( 'NONE',  ( 3.491481338843133355E-15, -1.049697256412017316E-16, 1.000000000000000000 ) ) ;
#47 = DIRECTION ( 'NONE',  ( -1.952626300925434370E-30, 1.000000000000000000, -5.592543999024829500E-16 ) ) ;
#48 = DIRECTION ( 'NONE',  ( -3.491481338843133355E-15, 1.049697256412017316E-16, -1.000000000000000000 ) ) ;
#49 = CALENDAR_DATE ( 2021, 26, 11 ) ;
#50 = MECHANICAL_CONTEXT ( 'NONE', #14, 'mechanical' ) ;
#51 = DATE_TIME_ROLE ( 'creation_date' ) ;
#52 = EDGE_CURVE ( 'NONE', #18, #18, #180, .T. ) ;
#53 = AXIS2_PLACEMENT_3D ( 'NONE', #102, #199, #29 ) ;
#54 = ORIENTED_EDGE ( 'NONE', *, *, #138, .F. ) ;
#55 = CIRCLE ( 'NONE', #144, 1.199999999999997513 ) ;
#56 = SECURITY_CLASSIFICATION_LEVEL ( 'unclassified' ) ;
#57 = EDGE_LOOP ( 'NONE', ( #78 ) ) ;
#58 = APPROVAL_DATE_TIME ( #114, #103 ) ;
#59 = CLOSED_SHELL ( 'NONE', ( #73, #77, #1, #198 ) ) ;
#60 = EDGE_LOOP ( 'NONE', ( #154 ) ) ;
#61 = ADVANCED_FACE ( 'NONE', ( #64, #236 ), #16, .T. ) ;
#62 = DIRECTION ( 'NONE',  ( 1.952626300925434370E-30, -1.000000000000000000, 5.592543999024829500E-16 ) ) ;
#63 = FACE_OUTER_BOUND ( 'NONE', #39, .T. ) ;
#64 = FACE_BOUND ( 'NONE', #195, .T. ) ;
#65 = LOCAL_TIME ( 14, 1, 50.00000000000000000, #225 ) ;
#66 = CARTESIAN_POINT ( 'NONE',  ( 0.0000000000000000000, 0.0000000000000000000, 0.0000000000000000000 ) ) ;
#67 = CARTESIAN_POINT ( 'NONE',  ( 2.433562493173664138E-13, -7.316389877191761450E-15, 69.70000000000001705 ) ) ;
#68 =( LENGTH_UNIT ( ) NAMED_UNIT ( * ) SI_UNIT ( .MILLI., .METRE. ) );
#69 = CARTESIAN_POINT ( 'NONE',  ( 3.721888157907479311E-14, 1.743999999999998662, 10.65991135768375386 ) ) ;
#70 = APPROVAL_ROLE ( '' ) ;
#71 = VERTEX_POINT ( 'NONE', #69 ) ;
#72 = VERTEX_POINT ( 'NONE', #240 ) ;
#73 = ADVANCED_FACE ( 'NONE', ( #86 ), #179, .T. ) ;
#74 = COORDINATED_UNIVERSAL_TIME_OFFSET ( 1, 0, .AHEAD. ) ;
#75 = ORIENTED_EDGE ( 'NONE', *, *, #138, .T. ) ;
#76 = AXIS2_PLACEMENT_3D ( 'NONE', #66, #182, #123 ) ;
#77 = ADVANCED_FACE ( 'NONE', ( #124, #142 ), #156, .T. ) ;
#78 = ORIENTED_EDGE ( 'NONE', *, *, #52, .F. ) ;
#79 = EDGE_CURVE ( 'NONE', #92, #92, #201, .T. ) ;
#80 = AXIS2_PLACEMENT_3D ( 'NONE', #99, #125, #44 ) ;
#81 = DIRECTION ( 'NONE',  ( -3.491481338843133355E-15, 1.049697256412017316E-16, -1.000000000000000000 ) ) ;
#82 = DIRECTION ( 'NONE',  ( -3.491481338843133355E-15, -5.592543999024829500E-16, -1.000000000000000000 ) ) ;
#83 = FACE_OUTER_BOUND ( 'NONE', #2, .T. ) ;
#84 = AXIS2_PLACEMENT_3D ( 'NONE', #30, #46, #9 ) ;
#85 = DIRECTION ( 'NONE',  ( -3.491481338843133355E-15, 1.049697256412017316E-16, -1.000000000000000000 ) ) ;
#86 = FACE_OUTER_BOUND ( 'NONE', #227, .T. ) ;
#87 = PRODUCT ( '321252', '321252', '', ( #50 ) ) ;
#88 = CARTESIAN_POINT ( 'NONE',  ( 3.869445280877825183E-14, 1.499999999999991562, 11.08253175473057617 ) ) ;
#89 = CIRCLE ( 'NONE', #34, 1.599662432702592563 ) ;
#90 = APPLICATION_PROTOCOL_DEFINITION ( 'international standard', 'config_control_design', 1994, #135 ) ;
#91 = PERSON_AND_ORGANIZATION_ROLE ( 'design_owner' ) ;
#92 = VERTEX_POINT ( 'NONE', #167 ) ;
#93 = EDGE_LOOP ( 'NONE', ( #196 ) ) ;
#94 = APPROVAL_DATE_TIME ( #23, #241 ) ;
#95 = ADVANCED_FACE ( 'NONE', ( #204 ), #176, .T. ) ;
#96 = MANIFOLD_SOLID_BREP ( 'Corps-Déplacer/Copier1[1]', #190 ) ;
#97 = PERSON_AND_ORGANIZATION ( #178, #11 ) ;
#98 = DATE_AND_TIME ( #173, #160 ) ;
#99 = CARTESIAN_POINT ( 'NONE',  ( 8.728703347107866915E-16, 1.398135999756212552E-16, 0.2500000000000009437 ) ) ;
#100 = AXIS2_PLACEMENT_3D ( 'NONE', #27, #232, #101 ) ;
#101 = DIRECTION ( 'NONE',  ( 0.0000000000000000000, 1.000000000000000000, 0.0000000000000000000 ) ) ;
#102 = CARTESIAN_POINT ( 'NONE',  ( 3.869445280877825183E-14, -1.163330317703974635E-15, 11.08253175473057617 ) ) ;
#103 = APPROVAL ( #5, 'UNSPECIFIED' ) ;
#104 = FACE_OUTER_BOUND ( 'NONE', #172, .T. ) ;
#105 = AXIS2_PLACEMENT_3D ( 'NONE', #231, #48, #13 ) ;
#106 = CYLINDRICAL_SURFACE ( 'NONE', #76, 1.499999999999995337 ) ;
#107 = CC_DESIGN_SECURITY_CLASSIFICATION ( #242, ( #223 ) ) ;
#108 = COORDINATED_UNIVERSAL_TIME_OFFSET ( 1, 0, .AHEAD. ) ;
#109 = CARTESIAN_POINT ( 'NONE',  ( -1.892735826383164860E-31, 1.599662432702592563, -5.421010862427522170E-17 ) ) ;
#110 = PLANE ( 'NONE',  #186 ) ;
#111 = APPROVAL ( #35, 'UNSPECIFIED' ) ;
#112 = CARTESIAN_POINT ( 'NONE',  ( 2.444036937190193601E-13, 1.199999999999990186, 70.00000000000000000 ) ) ;
#113 = ORIENTED_EDGE ( 'NONE', *, *, #224, .T. ) ;
#114 = DATE_AND_TIME ( #38, #65 ) ;
#115 = PRODUCT_DEFINITION ( 'UNKNOWN', '', #223, #192 ) ;
#116 = ORIENTED_EDGE ( 'NONE', *, *, #224, .F. ) ;
#117 = ORIENTED_EDGE ( 'NONE', *, *, #52, .T. ) ;
#118 = ORIENTED_EDGE ( 'NONE', *, *, #79, .T. ) ;
#119 = AXIS2_PLACEMENT_3D ( 'NONE', #24, #218, #12 ) ;
#120 = LOCAL_TIME ( 14, 1, 50.00000000000000000, #108 ) ;
#121 = DIRECTION ( 'NONE',  ( 0.0000000000000000000, 1.000000000000000000, 0.0000000000000000000 ) ) ;
#122 = CARTESIAN_POINT ( 'NONE',  ( 3.721888157907479311E-14, -1.118967970575593827E-15, 10.65991135768375386 ) ) ;
#123 = DIRECTION ( 'NONE',  ( 3.664998382197393967E-31, 1.000000000000000000, 1.049697256412017316E-16 ) ) ;
#124 = FACE_OUTER_BOUND ( 'NONE', #153, .T. ) ;
#125 = DIRECTION ( 'NONE',  ( -3.491481338843133355E-15, -5.592543999024829500E-16, -1.000000000000000000 ) ) ;
#126 = DATE_AND_TIME ( #49, #120 ) ;
#127 = APPROVAL_PERSON_ORGANIZATION ( #131, #111, #243 ) ;
#128 = DIRECTION ( 'NONE',  ( 1.000000000000000000, 0.0000000000000000000, 0.0000000000000000000 ) ) ;
#129 = CARTESIAN_POINT ( 'NONE',  ( 0.0000000000000000000, 0.0000000000000000000, 0.0000000000000000000 ) ) ;
#130 = EDGE_CURVE ( 'NONE', #165, #165, #45, .T. ) ;
#131 = PERSON_AND_ORGANIZATION ( #178, #11 ) ;
#132 = PERSON_AND_ORGANIZATION ( #178, #11 ) ;
#133 = CIRCLE ( 'NONE', #212, 1.743999999999992667 ) ;
#134 = EDGE_LOOP ( 'NONE', ( #113 ) ) ;
#135 = APPLICATION_CONTEXT ( 'configuration controlled 3d designs of mechanical parts and assemblies' ) ;
#136 = EDGE_LOOP ( 'NONE', ( #75 ) ) ;
#137 = PERSON_AND_ORGANIZATION_ROLE ( 'creator' ) ;
#138 = EDGE_CURVE ( 'NONE', #72, #72, #19, .T. ) ;
#139 = LOCAL_TIME ( 14, 1, 50.00000000000000000, #238 ) ;
#140 = DIRECTION ( 'NONE',  ( -1.952626300925434370E-30, 1.000000000000000000, -5.592543999024829500E-16 ) ) ;
#141 =( GEOMETRIC_REPRESENTATION_CONTEXT ( 3 ) GLOBAL_UNCERTAINTY_ASSIGNED_CONTEXT ( ( #221 ) ) GLOBAL_UNIT_ASSIGNED_CONTEXT ( ( #68, #188, #36 ) ) REPRESENTATION_CONTEXT ( 'NONE', 'WORKASPACE' ) );
#142 = FACE_OUTER_BOUND ( 'NONE', #150, .T. ) ;
#143 = CARTESIAN_POINT ( 'NONE',  ( 2.934269356059128631E-30, 4.700019529300484076E-31, 8.404081452233591827E-16 ) ) ;
#144 = AXIS2_PLACEMENT_3D ( 'NONE', #213, #235, #202 ) ;
#145 = CALENDAR_DATE ( 2021, 26, 11 ) ;
#146 = COORDINATED_UNIVERSAL_TIME_OFFSET ( 1, 0, .AHEAD. ) ;
#147 = CC_DESIGN_PERSON_AND_ORGANIZATION_ASSIGNMENT ( #171, #20, ( #223 ) ) ;
#148 = APPROVAL_ROLE ( '' ) ;
#149 = CC_DESIGN_APPROVAL ( #111, ( #115 ) ) ;
#150 = EDGE_LOOP ( 'NONE', ( #228 ) ) ;
#151 = PERSON_AND_ORGANIZATION_ROLE ( 'classification_officer' ) ;
#152 = CC_DESIGN_PERSON_AND_ORGANIZATION_ASSIGNMENT ( #184, #15, ( #115 ) ) ;
#153 = EDGE_LOOP ( 'NONE', ( #42 ) ) ;
#154 = ORIENTED_EDGE ( 'NONE', *, *, #130, .T. ) ;
#155 = APPROVAL_PERSON_ORGANIZATION ( #166, #241, #70 ) ;
#156 = CYLINDRICAL_SURFACE ( 'NONE', #219, 1.743999999999995554 ) ;
#157 = ADVANCED_FACE ( 'NONE', ( #200, #104 ), #7, .T. ) ;
#158 = DIRECTION ( 'NONE',  ( -3.533816411719713880E-30, 1.000000000000000000, -9.946808921885404190E-16 ) ) ;
#159 = FACE_OUTER_BOUND ( 'NONE', #134, .T. ) ;
#160 = LOCAL_TIME ( 14, 1, 50.00000000000000000, #74 ) ;
#161 = DIRECTION ( 'NONE',  ( 3.491481338843133355E-15, 5.592543999024829500E-16, 1.000000000000000000 ) ) ;
#162 = CARTESIAN_POINT ( 'NONE',  ( -1.656408260667880079E-30, 1.599662432702592563, -4.744141812359548131E-16 ) ) ;
#163 = EDGE_CURVE ( 'NONE', #71, #71, #133, .T. ) ;
#164 = AXIS2_PLACEMENT_3D ( 'NONE', #67, #85, #121 ) ;
#165 = VERTEX_POINT ( 'NONE', #88 ) ;
#166 = PERSON_AND_ORGANIZATION ( #178, #11 ) ;
#167 = CARTESIAN_POINT ( 'NONE',  ( 8.728703347107831416E-16, 1.743999999999998662, 0.2499999999999999445 ) ) ;
#168 = AXIS2_PLACEMENT_3D ( 'NONE', #26, #161, #62 ) ;
#169 = DATE_TIME_ROLE ( 'classification_date' ) ;
#170 = ORIENTED_EDGE ( 'NONE', *, *, #163, .F. ) ;
#171 = PERSON_AND_ORGANIZATION ( #178, #11 ) ;
#172 = EDGE_LOOP ( 'NONE', ( #54 ) ) ;
#173 = CALENDAR_DATE ( 2021, 26, 11 ) ;
#174 = ORIENTED_EDGE ( 'NONE', *, *, #21, .T. ) ;
#175 = DIRECTION ( 'NONE',  ( -1.952626300925434370E-30, 1.000000000000000000, -5.592543999024829500E-16 ) ) ;
#176 = PLANE ( 'NONE',  #84 ) ;
#177 = CARTESIAN_POINT ( 'NONE',  ( 3.721888157907479942E-14, 5.961602329355090487E-15, 10.65991135768375564 ) ) ;
#178 = PERSON ( 'UNSPECIFIED', 'UNSPECIFIED', 'UNSPECIFIED', ('UNSPECIFIED'), ('UNSPECIFIED'), ('UNSPECIFIED') ) ;
#179 = PLANE ( 'NONE',  #168 ) ;
#180 = CIRCLE ( 'NONE', #105, 1.499999999999997558 ) ;
#181 = ADVANCED_FACE ( 'NONE', ( #63, #83 ), #106, .T. ) ;
#182 = DIRECTION ( 'NONE',  ( -3.491481338843133355E-15, 1.049697256412017316E-16, -1.000000000000000000 ) ) ;
#183 = APPROVAL_DATE_TIME ( #126, #111 ) ;
#184 = PERSON_AND_ORGANIZATION ( #178, #11 ) ;
#185 = PRODUCT_RELATED_PRODUCT_CATEGORY ( 'detail', '', ( #87 ) ) ;
#186 = AXIS2_PLACEMENT_3D ( 'NONE', #206, #189, #237 ) ;
#187 = MANIFOLD_SOLID_BREP ( 'Corps-Déplacer/Copier1[2]', #59 ) ;
#188 =( NAMED_UNIT ( * ) PLANE_ANGLE_UNIT ( ) SI_UNIT ( $, .RADIAN. ) );
#189 = DIRECTION ( 'NONE',  ( -3.491481338843133355E-15, 1.049697256412017316E-16, -1.000000000000000000 ) ) ;
#190 = CLOSED_SHELL ( 'NONE', ( #95, #61, #181, #157, #230 ) ) ;
#191 = CARTESIAN_POINT ( 'NONE',  ( 2.433562493173664138E-13, 1.499999999999990230, 69.70000000000001705 ) ) ;
#192 = DESIGN_CONTEXT ( 'detailed design', #135, 'design' ) ;
#193 = SHAPE_DEFINITION_REPRESENTATION ( #205, #233 ) ;
#194 = CC_DESIGN_APPROVAL ( #241, ( #223 ) ) ;
#195 = EDGE_LOOP ( 'NONE', ( #174 ) ) ;
#196 = ORIENTED_EDGE ( 'NONE', *, *, #21, .F. ) ;
#197 = ORIENTED_EDGE ( 'NONE', *, *, #130, .F. ) ;
#198 = ADVANCED_FACE ( 'NONE', ( #159 ), #234, .T. ) ;
#199 = DIRECTION ( 'NONE',  ( -3.491481338843133355E-15, 1.049697256412017316E-16, -1.000000000000000000 ) ) ;
#200 = FACE_BOUND ( 'NONE', #60, .T. ) ;
#201 = CIRCLE ( 'NONE', #80, 1.743999999999998440 ) ;
#202 = DIRECTION ( 'NONE',  ( 0.0000000000000000000, 1.000000000000000000, 0.0000000000000000000 ) ) ;
#203 = CC_DESIGN_PERSON_AND_ORGANIZATION_ASSIGNMENT ( #97, #137, ( #223 ) ) ;
#204 = FACE_OUTER_BOUND ( 'NONE', #93, .T. ) ;
#205 = PRODUCT_DEFINITION_SHAPE ( 'NONE', 'NONE',  #115 ) ;
#206 = CARTESIAN_POINT ( 'NONE',  ( 3.721888157907478680E-14, 1.743999999999998662, 10.65991135768375209 ) ) ;
#207 = DIRECTION ( 'NONE',  ( 0.0000000000000000000, 0.0000000000000000000, 1.000000000000000000 ) ) ;
#208 = VERTEX_POINT ( 'NONE', #112 ) ;
#209 = PERSON_AND_ORGANIZATION ( #178, #11 ) ;
#210 = AXIS2_PLACEMENT_3D ( 'NONE', #122, #81, #32 ) ;
#211 = FACE_OUTER_BOUND ( 'NONE', #226, .T. ) ;
#212 = AXIS2_PLACEMENT_3D ( 'NONE', #177, #82, #158 ) ;
#213 = CARTESIAN_POINT ( 'NONE',  ( 2.444036937190193601E-13, -7.347880794884121511E-15, 70.00000000000000000 ) ) ;
#214 = AXIS2_PLACEMENT_3D ( 'NONE', #162, #216, #47 ) ;
#215 = CARTESIAN_POINT ( 'NONE',  ( 0.0000000000000000000, 0.0000000000000000000, 0.0000000000000000000 ) ) ;
#216 = DIRECTION ( 'NONE',  ( -3.491481338843133355E-15, -5.592543999024829500E-16, -1.000000000000000000 ) ) ;
#217 = CC_DESIGN_DATE_AND_TIME_ASSIGNMENT ( #220, #51, ( #115 ) ) ;
#218 = DIRECTION ( 'NONE',  ( 3.491481338843133355E-15, 5.592543999024829500E-16, 1.000000000000000000 ) ) ;
#219 = AXIS2_PLACEMENT_3D ( 'NONE', #215, #10, #140 ) ;
#220 = DATE_AND_TIME ( #145, #139 ) ;
#221 = UNCERTAINTY_MEASURE_WITH_UNIT (LENGTH_MEASURE( 1.000000000000000082E-05 ), #68, 'distance_accuracy_value', 'NONE');
#222 = CALENDAR_DATE ( 2021, 26, 11 ) ;
#223 = PRODUCT_DEFINITION_FORMATION_WITH_SPECIFIED_SOURCE ( 'ANY', '', #87, .NOT_KNOWN. ) ;
#224 = EDGE_CURVE ( 'NONE', #33, #33, #89, .T. ) ;
#225 = COORDINATED_UNIVERSAL_TIME_OFFSET ( 1, 0, .AHEAD. ) ;
#226 = EDGE_LOOP ( 'NONE', ( #118 ) ) ;
#227 = EDGE_LOOP ( 'NONE', ( #170 ) ) ;
#228 = ORIENTED_EDGE ( 'NONE', *, *, #79, .F. ) ;
#229 = LOCAL_TIME ( 14, 1, 50.00000000000000000, #146 ) ;
#230 = ADVANCED_FACE ( 'NONE', ( #8 ), #110, .T. ) ;
#231 = CARTESIAN_POINT ( 'NONE',  ( 2.433562493173664138E-13, -7.316389877191761450E-15, 69.70000000000001705 ) ) ;
#232 = DIRECTION ( 'NONE',  ( -3.491481338843133355E-15, 1.049697256412017316E-16, -1.000000000000000000 ) ) ;
#233 = ADVANCED_BREP_SHAPE_REPRESENTATION ( '321252', ( #96, #187, #22 ), #141 ) ;
#234 = PLANE ( 'NONE',  #214 ) ;
#235 = DIRECTION ( 'NONE',  ( -3.491481338843133355E-15, 1.049697256412017316E-16, -1.000000000000000000 ) ) ;
#236 = FACE_OUTER_BOUND ( 'NONE', #57, .T. ) ;
#237 = DIRECTION ( 'NONE',  ( 3.664998382197393967E-31, 1.000000000000000000, 1.049697256412017316E-16 ) ) ;
#238 = COORDINATED_UNIVERSAL_TIME_OFFSET ( 1, 0, .AHEAD. ) ;
#239 = APPROVAL_STATUS ( 'not_yet_approved' ) ;
#240 = CARTESIAN_POINT ( 'NONE',  ( 3.721888157907479311E-14, 1.743999999999998662, 10.65991135768375386 ) ) ;
#241 = APPROVAL ( #239, 'UNSPECIFIED' ) ;
#242 = SECURITY_CLASSIFICATION ( '', '', #56 ) ;
#243 = APPROVAL_ROLE ( '' ) ;
ENDSEC;
END-ISO-10303-21;
