ISO-10303-21;
HEADER;
FILE_DESCRIPTION (( 'STEP AP203' ),
    '1' );
FILE_NAME ('321251.step',
    '2021-11-26T13:01:49',
    ( '' ),
    ( '' ),
    'SwSTEP 2.0',
    'SolidWorks 2019',
    '' );
FILE_SCHEMA (( 'CONFIG_CONTROL_DESIGN' ));
ENDSEC;

DATA;
#1 = DIRECTION ( 'NONE',  ( 1.000000000000000000, 0.0000000000000000000, 0.0000000000000000000 ) ) ;
#2 = VERTEX_POINT ( 'NONE', #144 ) ;
#3 = CIRCLE ( 'NONE', #59, 1.738999999999998547 ) ;
#4 = APPROVAL ( #100, 'UNSPECIFIED' ) ;
#5 = CARTESIAN_POINT ( 'NONE',  ( 2.920871611837996109E-30, 4.673098319307593118E-31, 8.365708787679779854E-16 ) ) ;
#6 = ORIENTED_EDGE ( 'NONE', *, *, #208, .T. ) ;
#7 = APPROVAL_DATE_TIME ( #178, #61 ) ;
#8 = CIRCLE ( 'NONE', #40, 1.499999999999992673 ) ;
#9 = CC_DESIGN_SECURITY_CLASSIFICATION ( #30, ( #123 ) ) ;
#10 = PERSON_AND_ORGANIZATION_ROLE ( 'creator' ) ;
#11 = PERSON_AND_ORGANIZATION ( #141, #12 ) ;
#12 = ORGANIZATION ( 'UNSPECIFIED', 'UNSPECIFIED', '' ) ;
#13 = DIRECTION ( 'NONE',  ( -1.950347064491460196E-30, 1.000000000000000000, -5.586016006425765633E-16 ) ) ;
#14 = EDGE_LOOP ( 'NONE', ( #65 ) ) ;
#15 = FACE_OUTER_BOUND ( 'NONE', #224, .T. ) ;
#16 = CONICAL_SURFACE ( 'NONE', #185, 1.499999999999997558, 0.7853981633974573828 ) ;
#17 = CIRCLE ( 'NONE', #119, 1.499999999999997558 ) ;
#18 = CC_DESIGN_APPROVAL ( #121, ( #123 ) ) ;
#19 = ORIENTED_EDGE ( 'NONE', *, *, #208, .F. ) ;
#20 = EDGE_LOOP ( 'NONE', ( #206 ) ) ;
#21 = ADVANCED_FACE ( 'NONE', ( #142, #241 ), #237, .T. ) ;
#22 = VERTEX_POINT ( 'NONE', #189 ) ;
#23 = PRODUCT ( '321251', '321251', '', ( #228 ) ) ;
#24 = VERTEX_POINT ( 'NONE', #210 ) ;
#25 = DIRECTION ( 'NONE',  ( -3.491481338843133355E-15, 1.049697256412017316E-16, -1.000000000000000000 ) ) ;
#26 = DIRECTION ( 'NONE',  ( -3.491481338843133355E-15, 1.049697256412017316E-16, -1.000000000000000000 ) ) ;
#27 = PERSON_AND_ORGANIZATION ( #141, #12 ) ;
#28 = EDGE_CURVE ( 'NONE', #109, #109, #217, .T. ) ;
#29 = PERSON_AND_ORGANIZATION_ROLE ( 'design_owner' ) ;
#30 = SECURITY_CLASSIFICATION ( '', '', #196 ) ;
#31 = APPROVAL_STATUS ( 'not_yet_approved' ) ;
#32 = EDGE_LOOP ( 'NONE', ( #19 ) ) ;
#33 = CONICAL_SURFACE ( 'NONE', #176, 1.594662432702592669, 0.5235987755982970393 ) ;
#34 = DIRECTION ( 'NONE',  ( 3.491481338843133355E-15, 5.586016006425764647E-16, 1.000000000000000000 ) ) ;
#35 = CARTESIAN_POINT ( 'NONE',  ( -1.649709388557314168E-30, 1.594662432702592669, -4.724955480082641651E-16 ) ) ;
#36 = DIRECTION ( 'NONE',  ( 0.0000000000000000000, 1.000000000000000000, 0.0000000000000000000 ) ) ;
#37 = LOCAL_TIME ( 14, 1, 49.00000000000000000, #150 ) ;
#38 = ORIENTED_EDGE ( 'NONE', *, *, #72, .F. ) ;
#39 = ADVANCED_FACE ( 'NONE', ( #70 ), #104, .T. ) ;
#40 = AXIS2_PLACEMENT_3D ( 'NONE', #78, #25, #170 ) ;
#41 = DIRECTION ( 'NONE',  ( 1.950347064491460196E-30, -1.000000000000000000, 5.586016006425764647E-16 ) ) ;
#42 = CALENDAR_DATE ( 2021, 26, 11 ) ;
#43 = AXIS2_PLACEMENT_3D ( 'NONE', #139, #116, #239 ) ;
#44 = CC_DESIGN_APPROVAL ( #61, ( #181 ) ) ;
#45 = CC_DESIGN_PERSON_AND_ORGANIZATION_ASSIGNMENT ( #114, #10, ( #181 ) ) ;
#46 = APPROVAL_DATE_TIME ( #230, #4 ) ;
#47 = DATE_TIME_ROLE ( 'creation_date' ) ;
#48 = PERSON_AND_ORGANIZATION_ROLE ( 'design_supplier' ) ;
#49 = ADVANCED_FACE ( 'NONE', ( #115 ), #240, .T. ) ;
#50 = ORIENTED_EDGE ( 'NONE', *, *, #138, .F. ) ;
#51 = ADVANCED_FACE ( 'NONE', ( #136 ), #203, .T. ) ;
#52 = ORIENTED_EDGE ( 'NONE', *, *, #108, .T. ) ;
#53 = DIRECTION ( 'NONE',  ( 3.664998382197393967E-31, 1.000000000000000000, 1.049697256412017316E-16 ) ) ;
#54 = EDGE_LOOP ( 'NONE', ( #200 ) ) ;
#55 = APPROVAL_PERSON_ORGANIZATION ( #131, #4, #215 ) ;
#56 = DIRECTION ( 'NONE',  ( -3.491481338843133355E-15, -5.586016006425764647E-16, -1.000000000000000000 ) ) ;
#57 = DIRECTION ( 'NONE',  ( -3.491481338843133355E-15, -5.586016006425764647E-16, -1.000000000000000000 ) ) ;
#58 = DIRECTION ( 'NONE',  ( -1.950347064491460196E-30, 1.000000000000000000, -5.586016006425764647E-16 ) ) ;
#59 = AXIS2_PLACEMENT_3D ( 'NONE', #83, #159, #73 ) ;
#60 = LOCAL_TIME ( 14, 1, 49.00000000000000000, #132 ) ;
#61 = APPROVAL ( #231, 'UNSPECIFIED' ) ;
#62 = PERSON_AND_ORGANIZATION ( #141, #12 ) ;
#63 = CONICAL_SURFACE ( 'NONE', #202, 1.738999999999999879, 0.5235987755982934866 ) ;
#64 = PERSON_AND_ORGANIZATION_ROLE ( 'creator' ) ;
#65 = ORIENTED_EDGE ( 'NONE', *, *, #28, .F. ) ;
#66 = CC_DESIGN_PERSON_AND_ORGANIZATION_ASSIGNMENT ( #11, #48, ( #123 ) ) ;
#67 = EDGE_LOOP ( 'NONE', ( #233 ) ) ;
#68 = EDGE_CURVE ( 'NONE', #2, #2, #17, .T. ) ;
#69 = CLOSED_SHELL ( 'NONE', ( #51, #21, #222, #49 ) ) ;
#70 = FACE_OUTER_BOUND ( 'NONE', #14, .T. ) ;
#71 = DIRECTION ( 'NONE',  ( -3.491481338843133355E-15, 1.049697256412017316E-16, -1.000000000000000000 ) ) ;
#72 = EDGE_CURVE ( 'NONE', #242, #242, #3, .T. ) ;
#73 = DIRECTION ( 'NONE',  ( -1.993487003966088145E-30, 1.000000000000000000, -5.611167080143500658E-16 ) ) ;
#74 = AXIS2_PLACEMENT_3D ( 'NONE', #205, #118, #36 ) ;
#75 = CARTESIAN_POINT ( 'NONE',  ( 3.869445280877825183E-14, 1.499999999999991562, 11.08253175473057617 ) ) ;
#76 = ADVANCED_FACE ( 'NONE', ( #102, #15 ), #16, .T. ) ;
#77 = APPROVAL_PERSON_ORGANIZATION ( #199, #121, #197 ) ;
#78 = CARTESIAN_POINT ( 'NONE',  ( 3.869445280877825183E-14, -1.163330317703974635E-15, 11.08253175473057617 ) ) ;
#79 = PERSON_AND_ORGANIZATION ( #141, #12 ) ;
#80 = PERSON_AND_ORGANIZATION_ROLE ( 'classification_officer' ) ;
#81 = COORDINATED_UNIVERSAL_TIME_OFFSET ( 1, 0, .AHEAD. ) ;
#82 = APPLICATION_CONTEXT ( 'configuration controlled 3d designs of mechanical parts and assemblies' ) ;
#83 = CARTESIAN_POINT ( 'NONE',  ( 8.728703347107866915E-16, 1.396504001606446339E-16, 0.2500000000000009437 ) ) ;
#84 = DIRECTION ( 'NONE',  ( 0.0000000000000000000, 1.000000000000000000, 0.0000000000000000000 ) ) ;
#85 = FACE_OUTER_BOUND ( 'NONE', #32, .T. ) ;
#86 = LOCAL_TIME ( 14, 1, 49.00000000000000000, #81 ) ;
#87 = ORIENTED_EDGE ( 'NONE', *, *, #68, .T. ) ;
#88 = ADVANCED_FACE ( 'NONE', ( #238, #85 ), #162, .T. ) ;
#89 = CARTESIAN_POINT ( 'NONE',  ( 0.0000000000000000000, 0.0000000000000000000, 0.0000000000000000000 ) ) ;
#90 = CARTESIAN_POINT ( 'NONE',  ( 3.724911869443757447E-14, 5.959481178877636454E-15, 10.66857161172159785 ) ) ;
#91 = PRODUCT_DEFINITION_SHAPE ( 'NONE', 'NONE',  #181 ) ;
#92 = FACE_OUTER_BOUND ( 'NONE', #54, .T. ) ;
#93 = DIRECTION ( 'NONE',  ( 0.0000000000000000000, 0.0000000000000000000, 1.000000000000000000 ) ) ;
#94 = FACE_BOUND ( 'NONE', #106, .T. ) ;
#95 = CIRCLE ( 'NONE', #105, 1.738999999999992996 ) ;
#96 = CARTESIAN_POINT ( 'NONE',  ( 8.728703347107831416E-16, 1.738999999999998769, 0.2499999999999999445 ) ) ;
#97 = APPROVAL_DATE_TIME ( #214, #121 ) ;
#98 = DATE_AND_TIME ( #113, #158 ) ;
#99 = EDGE_LOOP ( 'NONE', ( #153 ) ) ;
#100 = APPROVAL_STATUS ( 'not_yet_approved' ) ;
#101 = DIRECTION ( 'NONE',  ( -1.950347064491460196E-30, 1.000000000000000000, -5.586016006425764647E-16 ) ) ;
#102 = FACE_BOUND ( 'NONE', #67, .T. ) ;
#103 = DIRECTION ( 'NONE',  ( -3.491481338843133355E-15, -5.586016006425764647E-16, -1.000000000000000000 ) ) ;
#104 = PLANE ( 'NONE',  #43 ) ;
#105 = AXIS2_PLACEMENT_3D ( 'NONE', #90, #57, #125 ) ;
#106 = EDGE_LOOP ( 'NONE', ( #137 ) ) ;
#107 = APPLICATION_CONTEXT ( 'configuration controlled 3d designs of mechanical parts and assemblies' ) ;
#108 = EDGE_CURVE ( 'NONE', #24, #24, #172, .T. ) ;
#109 = VERTEX_POINT ( 'NONE', #127 ) ;
#110 = CARTESIAN_POINT ( 'NONE',  ( 0.0000000000000000000, 0.0000000000000000000, 0.0000000000000000000 ) ) ;
#111 = CARTESIAN_POINT ( 'NONE',  ( 3.724911869443757447E-14, 1.738999999999998769, 10.66857161172159785 ) ) ;
#112 = DIRECTION ( 'NONE',  ( 3.664998382197393967E-31, 1.000000000000000000, 1.049697256412017316E-16 ) ) ;
#113 = CALENDAR_DATE ( 2021, 26, 11 ) ;
#114 = PERSON_AND_ORGANIZATION ( #141, #12 ) ;
#115 = FACE_OUTER_BOUND ( 'NONE', #99, .T. ) ;
#116 = DIRECTION ( 'NONE',  ( 3.491481338843133355E-15, -1.049697256412017316E-16, 1.000000000000000000 ) ) ;
#117 = CARTESIAN_POINT ( 'NONE',  ( 3.724911869443757447E-14, 5.959481178877636454E-15, 10.66857161172159785 ) ) ;
#118 = DIRECTION ( 'NONE',  ( -3.491481338843133355E-15, 1.049697256412017316E-16, -1.000000000000000000 ) ) ;
#119 = AXIS2_PLACEMENT_3D ( 'NONE', #167, #71, #84 ) ;
#120 = DIRECTION ( 'NONE',  ( 0.0000000000000000000, 1.000000000000000000, 0.0000000000000000000 ) ) ;
#121 = APPROVAL ( #31, 'UNSPECIFIED' ) ;
#122 = DIRECTION ( 'NONE',  ( -3.491481338843133355E-15, 1.049697256412017316E-16, -1.000000000000000000 ) ) ;
#123 = PRODUCT_DEFINITION_FORMATION_WITH_SPECIFIED_SOURCE ( 'ANY', '', #23, .NOT_KNOWN. ) ;
#124 = CARTESIAN_POINT ( 'NONE',  ( 2.920871611837996109E-30, 4.673098319307593118E-31, 8.365708787679779854E-16 ) ) ;
#125 = DIRECTION ( 'NONE',  ( -3.543976895939723469E-30, 1.000000000000000000, -9.975408142477366058E-16 ) ) ;
#126 = CC_DESIGN_DATE_AND_TIME_ASSIGNMENT ( #154, #216, ( #30 ) ) ;
#127 = CARTESIAN_POINT ( 'NONE',  ( 2.444036937190193601E-13, 1.199999999999990186, 70.00000000000000000 ) ) ;
#128 = APPROVAL_ROLE ( '' ) ;
#129 = LOCAL_TIME ( 14, 1, 49.00000000000000000, #218 ) ;
#130 = CC_DESIGN_DATE_AND_TIME_ASSIGNMENT ( #98, #47, ( #181 ) ) ;
#131 = PERSON_AND_ORGANIZATION ( #141, #12 ) ;
#132 = COORDINATED_UNIVERSAL_TIME_OFFSET ( 1, 0, .AHEAD. ) ;
#133 = EDGE_LOOP ( 'NONE', ( #6 ) ) ;
#134 = AXIS2_PLACEMENT_3D ( 'NONE', #221, #223, #53 ) ;
#135 = APPROVAL_PERSON_ORGANIZATION ( #79, #61, #128 ) ;
#136 = FACE_OUTER_BOUND ( 'NONE', #220, .T. ) ;
#137 = ORIENTED_EDGE ( 'NONE', *, *, #161, .F. ) ;
#138 = EDGE_CURVE ( 'NONE', #22, #22, #95, .T. ) ;
#139 = CARTESIAN_POINT ( 'NONE',  ( 2.444036937190193601E-13, -7.347880794884121511E-15, 70.00000000000000000 ) ) ;
#140 = ORIENTED_EDGE ( 'NONE', *, *, #68, .F. ) ;
#141 = PERSON ( 'UNSPECIFIED', 'UNSPECIFIED', 'UNSPECIFIED', ('UNSPECIFIED'), ('UNSPECIFIED'), ('UNSPECIFIED') ) ;
#142 = FACE_OUTER_BOUND ( 'NONE', #180, .T. ) ;
#143 = AXIS2_PLACEMENT_3D ( 'NONE', #166, #204, #120 ) ;
#144 = CARTESIAN_POINT ( 'NONE',  ( 2.433562493173664138E-13, 1.499999999999990230, 69.70000000000001705 ) ) ;
#145 =( NAMED_UNIT ( * ) PLANE_ANGLE_UNIT ( ) SI_UNIT ( $, .RADIAN. ) );
#146 = APPLICATION_PROTOCOL_DEFINITION ( 'international standard', 'config_control_design', 1994, #82 ) ;
#147 = AXIS2_PLACEMENT_3D ( 'NONE', #35, #103, #101 ) ;
#148 = FACE_OUTER_BOUND ( 'NONE', #20, .T. ) ;
#149 = DIRECTION ( 'NONE',  ( 3.491481338843133355E-15, 5.586016006425764647E-16, 1.000000000000000000 ) ) ;
#150 = COORDINATED_UNIVERSAL_TIME_OFFSET ( 1, 0, .AHEAD. ) ;
#151 = AXIS2_PLACEMENT_3D ( 'NONE', #89, #56, #13 ) ;
#152 = CALENDAR_DATE ( 2021, 26, 11 ) ;
#153 = ORIENTED_EDGE ( 'NONE', *, *, #161, .T. ) ;
#154 = DATE_AND_TIME ( #236, #86 ) ;
#155 = ORIENTED_EDGE ( 'NONE', *, *, #138, .T. ) ;
#156 = CC_DESIGN_PERSON_AND_ORGANIZATION_ASSIGNMENT ( #62, #64, ( #123 ) ) ;
#157 = AXIS2_PLACEMENT_3D ( 'NONE', #111, #122, #112 ) ;
#158 = LOCAL_TIME ( 14, 1, 49.00000000000000000, #174 ) ;
#159 = DIRECTION ( 'NONE',  ( -3.491481338843133355E-15, -5.586016006425764647E-16, -1.000000000000000000 ) ) ;
#160 = DIRECTION ( 'NONE',  ( 0.0000000000000000000, 1.000000000000000000, 0.0000000000000000000 ) ) ;
#161 = EDGE_CURVE ( 'NONE', #168, #168, #207, .T. ) ;
#162 = CYLINDRICAL_SURFACE ( 'NONE', #134, 1.499999999999995337 ) ;
#163 = AXIS2_PLACEMENT_3D ( 'NONE', #117, #34, #183 ) ;
#164 = AXIS2_PLACEMENT_3D ( 'NONE', #110, #93, #1 ) ;
#165 = DESIGN_CONTEXT ( 'detailed design', #107, 'design' ) ;
#166 = CARTESIAN_POINT ( 'NONE',  ( 2.444036937190193601E-13, -7.347880794884121511E-15, 70.00000000000000000 ) ) ;
#167 = CARTESIAN_POINT ( 'NONE',  ( 2.433562493173664138E-13, -7.316389877191761450E-15, 69.70000000000001705 ) ) ;
#168 = VERTEX_POINT ( 'NONE', #229 ) ;
#169 = MANIFOLD_SOLID_BREP ( 'Corps-Déplacer/Copier1[1]', #194 ) ;
#170 = DIRECTION ( 'NONE',  ( 0.0000000000000000000, 1.000000000000000000, 0.0000000000000000000 ) ) ;
#171 = MANIFOLD_SOLID_BREP ( 'Corps-Déplacer/Copier1[2]', #69 ) ;
#172 = CIRCLE ( 'NONE', #74, 1.738999999999999879 ) ;
#173 = ADVANCED_FACE ( 'NONE', ( #190 ), #192, .T. ) ;
#174 = COORDINATED_UNIVERSAL_TIME_OFFSET ( 1, 0, .AHEAD. ) ;
#175 = SHAPE_DEFINITION_REPRESENTATION ( #91, #188 ) ;
#176 = AXIS2_PLACEMENT_3D ( 'NONE', #5, #149, #41 ) ;
#177 =( GEOMETRIC_REPRESENTATION_CONTEXT ( 3 ) GLOBAL_UNCERTAINTY_ASSIGNED_CONTEXT ( ( #211 ) ) GLOBAL_UNIT_ASSIGNED_CONTEXT ( ( #243, #145, #212 ) ) REPRESENTATION_CONTEXT ( 'NONE', 'WORKASPACE' ) );
#178 = DATE_AND_TIME ( #152, #129 ) ;
#179 = CC_DESIGN_PERSON_AND_ORGANIZATION_ASSIGNMENT ( #198, #29, ( #23 ) ) ;
#180 = EDGE_LOOP ( 'NONE', ( #155 ) ) ;
#181 = PRODUCT_DEFINITION ( 'UNKNOWN', '', #123, #165 ) ;
#182 = DIRECTION ( 'NONE',  ( -3.491481338843133355E-15, 1.049697256412017316E-16, -1.000000000000000000 ) ) ;
#183 = DIRECTION ( 'NONE',  ( 1.950347064491460196E-30, -1.000000000000000000, 5.586016006425764647E-16 ) ) ;
#184 = EDGE_LOOP ( 'NONE', ( #87 ) ) ;
#185 = AXIS2_PLACEMENT_3D ( 'NONE', #209, #182, #160 ) ;
#186 = EDGE_LOOP ( 'NONE', ( #52 ) ) ;
#187 = CC_DESIGN_PERSON_AND_ORGANIZATION_ASSIGNMENT ( #27, #80, ( #30 ) ) ;
#188 = ADVANCED_BREP_SHAPE_REPRESENTATION ( '321251', ( #169, #171, #164 ), #177 ) ;
#189 = CARTESIAN_POINT ( 'NONE',  ( 3.724911869443756815E-14, 1.738999999999998769, 10.66857161172159607 ) ) ;
#190 = FACE_OUTER_BOUND ( 'NONE', #186, .T. ) ;
#191 = VERTEX_POINT ( 'NONE', #75 ) ;
#192 = PLANE ( 'NONE',  #157 ) ;
#193 = CARTESIAN_POINT ( 'NONE',  ( 3.724911869443756815E-14, -1.119877035065929354E-15, 10.66857161172159607 ) ) ;
#194 = CLOSED_SHELL ( 'NONE', ( #39, #76, #88, #226, #173 ) ) ;
#195 = CC_DESIGN_APPROVAL ( #4, ( #30 ) ) ;
#196 = SECURITY_CLASSIFICATION_LEVEL ( 'unclassified' ) ;
#197 = APPROVAL_ROLE ( '' ) ;
#198 = PERSON_AND_ORGANIZATION ( #141, #12 ) ;
#199 = PERSON_AND_ORGANIZATION ( #141, #12 ) ;
#200 = ORIENTED_EDGE ( 'NONE', *, *, #72, .T. ) ;
#201 = EDGE_LOOP ( 'NONE', ( #38 ) ) ;
#202 = AXIS2_PLACEMENT_3D ( 'NONE', #193, #26, #227 ) ;
#203 = PLANE ( 'NONE',  #163 ) ;
#204 = DIRECTION ( 'NONE',  ( -3.491481338843133355E-15, 1.049697256412017316E-16, -1.000000000000000000 ) ) ;
#205 = CARTESIAN_POINT ( 'NONE',  ( 3.724911869443756815E-14, -1.119877035065929354E-15, 10.66857161172159607 ) ) ;
#206 = ORIENTED_EDGE ( 'NONE', *, *, #108, .F. ) ;
#207 = CIRCLE ( 'NONE', #235, 1.594662432702592669 ) ;
#208 = EDGE_CURVE ( 'NONE', #191, #191, #8, .T. ) ;
#209 = CARTESIAN_POINT ( 'NONE',  ( 2.433562493173664138E-13, -7.316389877191761450E-15, 69.70000000000001705 ) ) ;
#210 = CARTESIAN_POINT ( 'NONE',  ( 3.724911869443756815E-14, 1.738999999999998769, 10.66857161172159607 ) ) ;
#211 = UNCERTAINTY_MEASURE_WITH_UNIT (LENGTH_MEASURE( 1.000000000000000082E-05 ), #243, 'distance_accuracy_value', 'NONE');
#212 =( NAMED_UNIT ( * ) SI_UNIT ( $, .STERADIAN. ) SOLID_ANGLE_UNIT ( ) );
#213 = FACE_BOUND ( 'NONE', #133, .T. ) ;
#214 = DATE_AND_TIME ( #42, #60 ) ;
#215 = APPROVAL_ROLE ( '' ) ;
#216 = DATE_TIME_ROLE ( 'classification_date' ) ;
#217 = CIRCLE ( 'NONE', #143, 1.199999999999997513 ) ;
#218 = COORDINATED_UNIVERSAL_TIME_OFFSET ( 1, 0, .AHEAD. ) ;
#219 = PRODUCT_RELATED_PRODUCT_CATEGORY ( 'detail', '', ( #23 ) ) ;
#220 = EDGE_LOOP ( 'NONE', ( #50 ) ) ;
#221 = CARTESIAN_POINT ( 'NONE',  ( 0.0000000000000000000, 0.0000000000000000000, 0.0000000000000000000 ) ) ;
#222 = ADVANCED_FACE ( 'NONE', ( #92, #94 ), #33, .T. ) ;
#223 = DIRECTION ( 'NONE',  ( -3.491481338843133355E-15, 1.049697256412017316E-16, -1.000000000000000000 ) ) ;
#224 = EDGE_LOOP ( 'NONE', ( #140 ) ) ;
#225 = DIRECTION ( 'NONE',  ( -3.491481338843133355E-15, -5.586016006425764647E-16, -1.000000000000000000 ) ) ;
#226 = ADVANCED_FACE ( 'NONE', ( #213, #148 ), #63, .T. ) ;
#227 = DIRECTION ( 'NONE',  ( 0.0000000000000000000, 1.000000000000000000, 0.0000000000000000000 ) ) ;
#228 = MECHANICAL_CONTEXT ( 'NONE', #82, 'mechanical' ) ;
#229 = CARTESIAN_POINT ( 'NONE',  ( -1.892735826383161356E-31, 1.594662432702592669, -5.421010862427522170E-17 ) ) ;
#230 = DATE_AND_TIME ( #234, #37 ) ;
#231 = APPROVAL_STATUS ( 'not_yet_approved' ) ;
#232 = APPLICATION_PROTOCOL_DEFINITION ( 'international standard', 'config_control_design', 1994, #107 ) ;
#233 = ORIENTED_EDGE ( 'NONE', *, *, #28, .T. ) ;
#234 = CALENDAR_DATE ( 2021, 26, 11 ) ;
#235 = AXIS2_PLACEMENT_3D ( 'NONE', #124, #225, #58 ) ;
#236 = CALENDAR_DATE ( 2021, 26, 11 ) ;
#237 = CYLINDRICAL_SURFACE ( 'NONE', #151, 1.738999999999995660 ) ;
#238 = FACE_OUTER_BOUND ( 'NONE', #184, .T. ) ;
#239 = DIRECTION ( 'NONE',  ( -3.664998382197393967E-31, -1.000000000000000000, -1.049697256412017316E-16 ) ) ;
#240 = PLANE ( 'NONE',  #147 ) ;
#241 = FACE_OUTER_BOUND ( 'NONE', #201, .T. ) ;
#242 = VERTEX_POINT ( 'NONE', #96 ) ;
#243 =( LENGTH_UNIT ( ) NAMED_UNIT ( * ) SI_UNIT ( .MILLI., .METRE. ) );
ENDSEC;
END-ISO-10303-21;
