ISO-10303-21;
HEADER;
FILE_DESCRIPTION (( 'STEP AP203' ),
    '1' );
FILE_NAME ('321250.step',
    '2021-11-26T13:01:48',
    ( '' ),
    ( '' ),
    'SwSTEP 2.0',
    'SolidWorks 2019',
    '' );
FILE_SCHEMA (( 'CONFIG_CONTROL_DESIGN' ));
ENDSEC;

DATA;
#1 = EDGE_LOOP ( 'NONE', ( #97 ) ) ;
#2 = CC_DESIGN_DATE_AND_TIME_ASSIGNMENT ( #130, #86, ( #53 ) ) ;
#3 = AXIS2_PLACEMENT_3D ( 'NONE', #119, #31, #66 ) ;
#4 = CARTESIAN_POINT ( 'NONE',  ( 3.869445280877825183E-14, -1.163330317703974635E-15, 11.08253175473057617 ) ) ;
#5 = FACE_OUTER_BOUND ( 'NONE', #115, .T. ) ;
#6 = ADVANCED_FACE ( 'NONE', ( #39 ), #131, .T. ) ;
#7 = CARTESIAN_POINT ( 'NONE',  ( 8.728703347107831416E-16, 1.733999999999998876, 0.2499999999999999445 ) ) ;
#8 = CARTESIAN_POINT ( 'NONE',  ( 2.907502537529994376E-30, 4.646281842402377781E-31, 8.327418237020752856E-16 ) ) ;
#9 = DIRECTION ( 'NONE',  ( -3.491481338843133355E-15, -5.579498603476709689E-16, -1.000000000000000000 ) ) ;
#10 = DIRECTION ( 'NONE',  ( -3.554195975801141622E-30, 1.000000000000000000, -1.000417229513733614E-15 ) ) ;
#11 =( GEOMETRIC_REPRESENTATION_CONTEXT ( 3 ) GLOBAL_UNCERTAINTY_ASSIGNED_CONTEXT ( ( #184 ) ) GLOBAL_UNIT_ASSIGNED_CONTEXT ( ( #233, #83, #213 ) ) REPRESENTATION_CONTEXT ( 'NONE', 'WORKASPACE' ) );
#12 = SHAPE_DEFINITION_REPRESENTATION ( #15, #202 ) ;
#13 = ORIENTED_EDGE ( 'NONE', *, *, #68, .F. ) ;
#14 = PERSON_AND_ORGANIZATION ( #180, #167 ) ;
#15 = PRODUCT_DEFINITION_SHAPE ( 'NONE', 'NONE',  #53 ) ;
#16 = CALENDAR_DATE ( 2021, 26, 11 ) ;
#17 = AXIS2_PLACEMENT_3D ( 'NONE', #220, #207, #210 ) ;
#18 = LOCAL_TIME ( 14, 1, 48.00000000000000000, #49 ) ;
#19 = COORDINATED_UNIVERSAL_TIME_OFFSET ( 1, 0, .AHEAD. ) ;
#20 = ORIENTED_EDGE ( 'NONE', *, *, #231, .F. ) ;
#21 = PERSON_AND_ORGANIZATION_ROLE ( 'design_supplier' ) ;
#22 = DESIGN_CONTEXT ( 'detailed design', #91, 'design' ) ;
#23 = EDGE_CURVE ( 'NONE', #84, #84, #100, .T. ) ;
#24 = DIRECTION ( 'NONE',  ( 0.0000000000000000000, 1.000000000000000000, 0.0000000000000000000 ) ) ;
#25 = CONICAL_SURFACE ( 'NONE', #55, 1.733999999999999764, 0.5235987755982941527 ) ;
#26 = DIRECTION ( 'NONE',  ( 3.491481338843133355E-15, -1.049697256412017316E-16, 1.000000000000000000 ) ) ;
#27 = EDGE_LOOP ( 'NONE', ( #238 ) ) ;
#28 = CARTESIAN_POINT ( 'NONE',  ( 3.727935580980034320E-14, 1.733999999999998876, 10.67723186575944183 ) ) ;
#29 = FACE_OUTER_BOUND ( 'NONE', #113, .T. ) ;
#30 = APPROVAL ( #123, 'UNSPECIFIED' ) ;
#31 = DIRECTION ( 'NONE',  ( 3.491481338843133355E-15, 5.579498603476709689E-16, 1.000000000000000000 ) ) ;
#32 = VERTEX_POINT ( 'NONE', #174 ) ;
#33 = AXIS2_PLACEMENT_3D ( 'NONE', #175, #179, #10 ) ;
#34 = CC_DESIGN_APPROVAL ( #30, ( #56 ) ) ;
#35 = CALENDAR_DATE ( 2021, 26, 11 ) ;
#36 = CARTESIAN_POINT ( 'NONE',  ( 2.444036937190193601E-13, -7.347880794884121511E-15, 70.00000000000000000 ) ) ;
#37 = APPROVAL_STATUS ( 'not_yet_approved' ) ;
#38 = CC_DESIGN_PERSON_AND_ORGANIZATION_ASSIGNMENT ( #142, #237, ( #128 ) ) ;
#39 = FACE_OUTER_BOUND ( 'NONE', #217, .T. ) ;
#40 = DIRECTION ( 'NONE',  ( -3.491481338843133355E-15, 1.049697256412017316E-16, -1.000000000000000000 ) ) ;
#41 = PLANE ( 'NONE',  #17 ) ;
#42 = AXIS2_PLACEMENT_3D ( 'NONE', #4, #169, #70 ) ;
#43 = FACE_BOUND ( 'NONE', #226, .T. ) ;
#44 = DIRECTION ( 'NONE',  ( -1.999235236388135725E-30, 1.000000000000000000, -5.627346916014733462E-16 ) ) ;
#45 = ADVANCED_FACE ( 'NONE', ( #62, #110 ), #88, .T. ) ;
#46 = CARTESIAN_POINT ( 'NONE',  ( 3.727935580980034320E-14, -1.120786099556265078E-15, 10.67723186575944183 ) ) ;
#47 = CARTESIAN_POINT ( 'NONE',  ( 3.869445280877825183E-14, 1.499999999999991562, 11.08253175473057617 ) ) ;
#48 = EDGE_LOOP ( 'NONE', ( #204 ) ) ;
#49 = COORDINATED_UNIVERSAL_TIME_OFFSET ( 1, 0, .AHEAD. ) ;
#50 = ADVANCED_FACE ( 'NONE', ( #194 ), #41, .T. ) ;
#51 = PERSON_AND_ORGANIZATION_ROLE ( 'creator' ) ;
#52 = DIRECTION ( 'NONE',  ( 0.0000000000000000000, 1.000000000000000000, 0.0000000000000000000 ) ) ;
#53 = PRODUCT_DEFINITION ( 'UNKNOWN', '', #128, #22 ) ;
#54 = CARTESIAN_POINT ( 'NONE',  ( 2.433562493173664138E-13, -7.316389877191761450E-15, 69.70000000000001705 ) ) ;
#55 = AXIS2_PLACEMENT_3D ( 'NONE', #198, #116, #177 ) ;
#56 = SECURITY_CLASSIFICATION ( '', '', #125 ) ;
#57 = DATE_TIME_ROLE ( 'classification_date' ) ;
#58 = CC_DESIGN_PERSON_AND_ORGANIZATION_ASSIGNMENT ( #105, #21, ( #128 ) ) ;
#59 = CARTESIAN_POINT ( 'NONE',  ( 2.433562493173664138E-13, -7.316389877191761450E-15, 69.70000000000001705 ) ) ;
#60 = ORIENTED_EDGE ( 'NONE', *, *, #209, .T. ) ;
#61 = CLOSED_SHELL ( 'NONE', ( #173, #241, #45, #79 ) ) ;
#62 = FACE_OUTER_BOUND ( 'NONE', #48, .T. ) ;
#63 = APPROVAL_PERSON_ORGANIZATION ( #146, #30, #144 ) ;
#64 = CARTESIAN_POINT ( 'NONE',  ( 0.0000000000000000000, 0.0000000000000000000, 0.0000000000000000000 ) ) ;
#65 = CARTESIAN_POINT ( 'NONE',  ( 8.728703347107866915E-16, 1.394874650869182599E-16, 0.2500000000000009437 ) ) ;
#66 = DIRECTION ( 'NONE',  ( 1.948071525414025443E-30, -1.000000000000000000, 5.579498603476709689E-16 ) ) ;
#67 = FACE_OUTER_BOUND ( 'NONE', #164, .T. ) ;
#68 = EDGE_CURVE ( 'NONE', #152, #152, #170, .T. ) ;
#69 = CALENDAR_DATE ( 2021, 26, 11 ) ;
#70 = DIRECTION ( 'NONE',  ( 0.0000000000000000000, 1.000000000000000000, 0.0000000000000000000 ) ) ;
#71 = CALENDAR_DATE ( 2021, 26, 11 ) ;
#72 = CARTESIAN_POINT ( 'NONE',  ( 0.0000000000000000000, 0.0000000000000000000, 0.0000000000000000000 ) ) ;
#73 = DATE_AND_TIME ( #162, #143 ) ;
#74 = CC_DESIGN_APPROVAL ( #111, ( #128 ) ) ;
#75 = PRODUCT_RELATED_PRODUCT_CATEGORY ( 'detail', '', ( #124 ) ) ;
#76 = DIRECTION ( 'NONE',  ( -1.948071525414025443E-30, 1.000000000000000000, -5.579498603476709689E-16 ) ) ;
#77 = APPROVAL_PERSON_ORGANIZATION ( #200, #182, #185 ) ;
#78 = ORIENTED_EDGE ( 'NONE', *, *, #23, .F. ) ;
#79 = ADVANCED_FACE ( 'NONE', ( #5 ), #80, .T. ) ;
#80 = PLANE ( 'NONE',  #149 ) ;
#81 = DIRECTION ( 'NONE',  ( -1.948071525414025443E-30, 1.000000000000000000, -5.579498603476710675E-16 ) ) ;
#82 = CARTESIAN_POINT ( 'NONE',  ( 2.433562493173664138E-13, 1.499999999999990230, 69.70000000000001705 ) ) ;
#83 =( NAMED_UNIT ( * ) PLANE_ANGLE_UNIT ( ) SI_UNIT ( $, .RADIAN. ) );
#84 = VERTEX_POINT ( 'NONE', #47 ) ;
#85 = APPROVAL_ROLE ( '' ) ;
#86 = DATE_TIME_ROLE ( 'creation_date' ) ;
#87 = EDGE_CURVE ( 'NONE', #137, #137, #230, .T. ) ;
#88 = CONICAL_SURFACE ( 'NONE', #118, 1.589662432702592554, 0.5235987755982970393 ) ;
#89 = APPROVAL_DATE_TIME ( #73, #30 ) ;
#90 = DIRECTION ( 'NONE',  ( -3.491481338843133355E-15, -5.579498603476709689E-16, -1.000000000000000000 ) ) ;
#91 = APPLICATION_CONTEXT ( 'configuration controlled 3d designs of mechanical parts and assemblies' ) ;
#92 = PERSON_AND_ORGANIZATION ( #180, #167 ) ;
#93 = DIRECTION ( 'NONE',  ( -3.491481338843133355E-15, 1.049697256412017316E-16, -1.000000000000000000 ) ) ;
#94 = ORIENTED_EDGE ( 'NONE', *, *, #161, .F. ) ;
#95 = CIRCLE ( 'NONE', #223, 1.733999999999999764 ) ;
#96 = EDGE_LOOP ( 'NONE', ( #78 ) ) ;
#97 = ORIENTED_EDGE ( 'NONE', *, *, #23, .T. ) ;
#98 = FACE_OUTER_BOUND ( 'NONE', #27, .T. ) ;
#99 = CC_DESIGN_PERSON_AND_ORGANIZATION_ASSIGNMENT ( #122, #160, ( #124 ) ) ;
#100 = CIRCLE ( 'NONE', #42, 1.499999999999992673 ) ;
#101 = DIRECTION ( 'NONE',  ( -3.491481338843133355E-15, -5.579498603476709689E-16, -1.000000000000000000 ) ) ;
#102 = FACE_BOUND ( 'NONE', #1, .T. ) ;
#103 = DIRECTION ( 'NONE',  ( 1.000000000000000000, 0.0000000000000000000, 0.0000000000000000000 ) ) ;
#104 = ORIENTED_EDGE ( 'NONE', *, *, #87, .F. ) ;
#105 = PERSON_AND_ORGANIZATION ( #180, #167 ) ;
#106 = AXIS2_PLACEMENT_3D ( 'NONE', #141, #108, #103 ) ;
#107 = ORIENTED_EDGE ( 'NONE', *, *, #87, .T. ) ;
#108 = DIRECTION ( 'NONE',  ( 0.0000000000000000000, 0.0000000000000000000, 1.000000000000000000 ) ) ;
#109 = ADVANCED_FACE ( 'NONE', ( #147, #129 ), #168, .T. ) ;
#110 = FACE_BOUND ( 'NONE', #140, .T. ) ;
#111 = APPROVAL ( #37, 'UNSPECIFIED' ) ;
#112 = ORIENTED_EDGE ( 'NONE', *, *, #231, .T. ) ;
#113 = EDGE_LOOP ( 'NONE', ( #94 ) ) ;
#114 = CIRCLE ( 'NONE', #138, 1.589662432702592554 ) ;
#115 = EDGE_LOOP ( 'NONE', ( #60 ) ) ;
#116 = DIRECTION ( 'NONE',  ( -3.491481338843133355E-15, 1.049697256412017316E-16, -1.000000000000000000 ) ) ;
#117 = CC_DESIGN_PERSON_AND_ORGANIZATION_ASSIGNMENT ( #235, #51, ( #53 ) ) ;
#118 = AXIS2_PLACEMENT_3D ( 'NONE', #126, #239, #145 ) ;
#119 = CARTESIAN_POINT ( 'NONE',  ( 3.727935580980034951E-14, 5.957360028400183999E-15, 10.67723186575944361 ) ) ;
#120 = DIRECTION ( 'NONE',  ( -3.491481338843133355E-15, 1.049697256412017316E-16, -1.000000000000000000 ) ) ;
#121 = VERTEX_POINT ( 'NONE', #7 ) ;
#122 = PERSON_AND_ORGANIZATION ( #180, #167 ) ;
#123 = APPROVAL_STATUS ( 'not_yet_approved' ) ;
#124 = PRODUCT ( '321250', '321250', '', ( #127 ) ) ;
#125 = SECURITY_CLASSIFICATION_LEVEL ( 'unclassified' ) ;
#126 = CARTESIAN_POINT ( 'NONE',  ( 2.907502537529994376E-30, 4.646281842402377781E-31, 8.327418237020752856E-16 ) ) ;
#127 = MECHANICAL_CONTEXT ( 'NONE', #208, 'mechanical' ) ;
#128 = PRODUCT_DEFINITION_FORMATION_WITH_SPECIFIED_SOURCE ( 'ANY', '', #124, .NOT_KNOWN. ) ;
#129 = FACE_OUTER_BOUND ( 'NONE', #96, .T. ) ;
#130 = DATE_AND_TIME ( #16, #218 ) ;
#131 = PLANE ( 'NONE',  #206 ) ;
#132 = DIRECTION ( 'NONE',  ( 0.0000000000000000000, 1.000000000000000000, 0.0000000000000000000 ) ) ;
#133 = CARTESIAN_POINT ( 'NONE',  ( -1.643024851403313302E-30, 1.589662432702592554, -4.705810204753129138E-16 ) ) ;
#134 = CIRCLE ( 'NONE', #33, 1.733999999999992880 ) ;
#135 = LOCAL_TIME ( 14, 1, 48.00000000000000000, #165 ) ;
#136 = CC_DESIGN_PERSON_AND_ORGANIZATION_ASSIGNMENT ( #92, #183, ( #56 ) ) ;
#137 = VERTEX_POINT ( 'NONE', #82 ) ;
#138 = AXIS2_PLACEMENT_3D ( 'NONE', #8, #216, #81 ) ;
#139 = DIRECTION ( 'NONE',  ( -1.948071525414025443E-30, 1.000000000000000000, -5.579498603476709689E-16 ) ) ;
#140 = EDGE_LOOP ( 'NONE', ( #150 ) ) ;
#141 = CARTESIAN_POINT ( 'NONE',  ( 0.0000000000000000000, 0.0000000000000000000, 0.0000000000000000000 ) ) ;
#142 = PERSON_AND_ORGANIZATION ( #180, #167 ) ;
#143 = LOCAL_TIME ( 14, 1, 48.00000000000000000, #221 ) ;
#144 = APPROVAL_ROLE ( '' ) ;
#145 = DIRECTION ( 'NONE',  ( 1.948071525414025443E-30, -1.000000000000000000, 5.579498603476710675E-16 ) ) ;
#146 = PERSON_AND_ORGANIZATION ( #180, #167 ) ;
#147 = FACE_OUTER_BOUND ( 'NONE', #229, .T. ) ;
#148 = DIRECTION ( 'NONE',  ( -3.491481338843133355E-15, 1.049697256412017316E-16, -1.000000000000000000 ) ) ;
#149 = AXIS2_PLACEMENT_3D ( 'NONE', #133, #90, #76 ) ;
#150 = ORIENTED_EDGE ( 'NONE', *, *, #209, .F. ) ;
#151 = DIRECTION ( 'NONE',  ( 3.664998382197393967E-31, 1.000000000000000000, 1.049697256412017316E-16 ) ) ;
#152 = VERTEX_POINT ( 'NONE', #158 ) ;
#153 = AXIS2_PLACEMENT_3D ( 'NONE', #64, #101, #139 ) ;
#154 = CYLINDRICAL_SURFACE ( 'NONE', #153, 1.733999999999995767 ) ;
#155 = ADVANCED_FACE ( 'NONE', ( #43, #228 ), #234, .T. ) ;
#156 = FACE_OUTER_BOUND ( 'NONE', #196, .T. ) ;
#157 = AXIS2_PLACEMENT_3D ( 'NONE', #65, #9, #44 ) ;
#158 = CARTESIAN_POINT ( 'NONE',  ( 2.444036937190193601E-13, 1.199999999999990186, 70.00000000000000000 ) ) ;
#159 = MANIFOLD_SOLID_BREP ( 'Corps-Déplacer/Copier1[1]', #190 ) ;
#160 = PERSON_AND_ORGANIZATION_ROLE ( 'design_owner' ) ;
#161 = EDGE_CURVE ( 'NONE', #232, #232, #95, .T. ) ;
#162 = CALENDAR_DATE ( 2021, 26, 11 ) ;
#163 = COORDINATED_UNIVERSAL_TIME_OFFSET ( 1, 0, .AHEAD. ) ;
#164 = EDGE_LOOP ( 'NONE', ( #112 ) ) ;
#165 = COORDINATED_UNIVERSAL_TIME_OFFSET ( 1, 0, .AHEAD. ) ;
#166 = AXIS2_PLACEMENT_3D ( 'NONE', #54, #93, #24 ) ;
#167 = ORGANIZATION ( 'UNSPECIFIED', 'UNSPECIFIED', '' ) ;
#168 = CYLINDRICAL_SURFACE ( 'NONE', #215, 1.499999999999995337 ) ;
#169 = DIRECTION ( 'NONE',  ( -3.491481338843133355E-15, 1.049697256412017316E-16, -1.000000000000000000 ) ) ;
#170 = CIRCLE ( 'NONE', #236, 1.199999999999997513 ) ;
#171 = APPROVAL_PERSON_ORGANIZATION ( #14, #111, #85 ) ;
#172 = ORIENTED_EDGE ( 'NONE', *, *, #68, .T. ) ;
#173 = ADVANCED_FACE ( 'NONE', ( #156 ), #197, .T. ) ;
#174 = CARTESIAN_POINT ( 'NONE',  ( 3.727935580980034320E-14, 1.733999999999998876, 10.67723186575944183 ) ) ;
#175 = CARTESIAN_POINT ( 'NONE',  ( 3.727935580980034951E-14, 5.957360028400183999E-15, 10.67723186575944361 ) ) ;
#176 = CC_DESIGN_SECURITY_CLASSIFICATION ( #56, ( #128 ) ) ;
#177 = DIRECTION ( 'NONE',  ( 0.0000000000000000000, 1.000000000000000000, 0.0000000000000000000 ) ) ;
#178 = APPLICATION_PROTOCOL_DEFINITION ( 'international standard', 'config_control_design', 1994, #208 ) ;
#179 = DIRECTION ( 'NONE',  ( -3.491481338843133355E-15, -5.579498603476709689E-16, -1.000000000000000000 ) ) ;
#180 = PERSON ( 'UNSPECIFIED', 'UNSPECIFIED', 'UNSPECIFIED', ('UNSPECIFIED'), ('UNSPECIFIED'), ('UNSPECIFIED') ) ;
#181 = CC_DESIGN_APPROVAL ( #182, ( #53 ) ) ;
#182 = APPROVAL ( #224, 'UNSPECIFIED' ) ;
#183 = PERSON_AND_ORGANIZATION_ROLE ( 'classification_officer' ) ;
#184 = UNCERTAINTY_MEASURE_WITH_UNIT (LENGTH_MEASURE( 1.000000000000000082E-05 ), #233, 'distance_accuracy_value', 'NONE');
#185 = APPROVAL_ROLE ( '' ) ;
#186 = APPROVAL_DATE_TIME ( #205, #182 ) ;
#187 = EDGE_CURVE ( 'NONE', #121, #121, #242, .T. ) ;
#188 = EDGE_LOOP ( 'NONE', ( #104 ) ) ;
#189 = APPROVAL_DATE_TIME ( #219, #111 ) ;
#190 = CLOSED_SHELL ( 'NONE', ( #6, #155, #109, #225, #50 ) ) ;
#191 = AXIS2_PLACEMENT_3D ( 'NONE', #59, #40, #132 ) ;
#192 = CC_DESIGN_DATE_AND_TIME_ASSIGNMENT ( #240, #57, ( #56 ) ) ;
#193 = EDGE_LOOP ( 'NONE', ( #201 ) ) ;
#194 = FACE_OUTER_BOUND ( 'NONE', #193, .T. ) ;
#195 = DIRECTION ( 'NONE',  ( -3.491481338843133355E-15, 1.049697256412017316E-16, -1.000000000000000000 ) ) ;
#196 = EDGE_LOOP ( 'NONE', ( #20 ) ) ;
#197 = PLANE ( 'NONE',  #3 ) ;
#198 = CARTESIAN_POINT ( 'NONE',  ( 3.727935580980034320E-14, -1.120786099556265078E-15, 10.67723186575944183 ) ) ;
#199 = CARTESIAN_POINT ( 'NONE',  ( -1.892735826383154569E-31, 1.589662432702592554, -5.421010862427522170E-17 ) ) ;
#200 = PERSON_AND_ORGANIZATION ( #180, #167 ) ;
#201 = ORIENTED_EDGE ( 'NONE', *, *, #161, .T. ) ;
#202 = ADVANCED_BREP_SHAPE_REPRESENTATION ( '321250', ( #159, #243, #106 ), #11 ) ;
#203 = APPLICATION_PROTOCOL_DEFINITION ( 'international standard', 'config_control_design', 1994, #91 ) ;
#204 = ORIENTED_EDGE ( 'NONE', *, *, #187, .T. ) ;
#205 = DATE_AND_TIME ( #35, #18 ) ;
#206 = AXIS2_PLACEMENT_3D ( 'NONE', #211, #26, #222 ) ;
#207 = DIRECTION ( 'NONE',  ( -3.491481338843133355E-15, 1.049697256412017316E-16, -1.000000000000000000 ) ) ;
#208 = APPLICATION_CONTEXT ( 'configuration controlled 3d designs of mechanical parts and assemblies' ) ;
#209 = EDGE_CURVE ( 'NONE', #214, #214, #114, .T. ) ;
#210 = DIRECTION ( 'NONE',  ( 3.664998382197393967E-31, 1.000000000000000000, 1.049697256412017316E-16 ) ) ;
#211 = CARTESIAN_POINT ( 'NONE',  ( 2.444036937190193601E-13, -7.347880794884121511E-15, 70.00000000000000000 ) ) ;
#212 = DIRECTION ( 'NONE',  ( 0.0000000000000000000, 1.000000000000000000, 0.0000000000000000000 ) ) ;
#213 =( NAMED_UNIT ( * ) SI_UNIT ( $, .STERADIAN. ) SOLID_ANGLE_UNIT ( ) );
#214 = VERTEX_POINT ( 'NONE', #199 ) ;
#215 = AXIS2_PLACEMENT_3D ( 'NONE', #72, #148, #151 ) ;
#216 = DIRECTION ( 'NONE',  ( -3.491481338843133355E-15, -5.579498603476709689E-16, -1.000000000000000000 ) ) ;
#217 = EDGE_LOOP ( 'NONE', ( #13 ) ) ;
#218 = LOCAL_TIME ( 14, 1, 48.00000000000000000, #19 ) ;
#219 = DATE_AND_TIME ( #71, #227 ) ;
#220 = CARTESIAN_POINT ( 'NONE',  ( 3.727935580980034951E-14, 1.733999999999998876, 10.67723186575944361 ) ) ;
#221 = COORDINATED_UNIVERSAL_TIME_OFFSET ( 1, 0, .AHEAD. ) ;
#222 = DIRECTION ( 'NONE',  ( -3.664998382197393967E-31, -1.000000000000000000, -1.049697256412017316E-16 ) ) ;
#223 = AXIS2_PLACEMENT_3D ( 'NONE', #46, #120, #212 ) ;
#224 = APPROVAL_STATUS ( 'not_yet_approved' ) ;
#225 = ADVANCED_FACE ( 'NONE', ( #102, #29 ), #25, .T. ) ;
#226 = EDGE_LOOP ( 'NONE', ( #172 ) ) ;
#227 = LOCAL_TIME ( 14, 1, 48.00000000000000000, #163 ) ;
#228 = FACE_OUTER_BOUND ( 'NONE', #188, .T. ) ;
#229 = EDGE_LOOP ( 'NONE', ( #107 ) ) ;
#230 = CIRCLE ( 'NONE', #166, 1.499999999999997558 ) ;
#231 = EDGE_CURVE ( 'NONE', #32, #32, #134, .T. ) ;
#232 = VERTEX_POINT ( 'NONE', #28 ) ;
#233 =( LENGTH_UNIT ( ) NAMED_UNIT ( * ) SI_UNIT ( .MILLI., .METRE. ) );
#234 = CONICAL_SURFACE ( 'NONE', #191, 1.499999999999997558, 0.7853981633974573828 ) ;
#235 = PERSON_AND_ORGANIZATION ( #180, #167 ) ;
#236 = AXIS2_PLACEMENT_3D ( 'NONE', #36, #195, #52 ) ;
#237 = PERSON_AND_ORGANIZATION_ROLE ( 'creator' ) ;
#238 = ORIENTED_EDGE ( 'NONE', *, *, #187, .F. ) ;
#239 = DIRECTION ( 'NONE',  ( 3.491481338843133355E-15, 5.579498603476709689E-16, 1.000000000000000000 ) ) ;
#240 = DATE_AND_TIME ( #69, #135 ) ;
#241 = ADVANCED_FACE ( 'NONE', ( #67, #98 ), #154, .T. ) ;
#242 = CIRCLE ( 'NONE', #157, 1.733999999999998654 ) ;
#243 = MANIFOLD_SOLID_BREP ( 'Corps-Déplacer/Copier1[2]', #61 ) ;
ENDSEC;
END-ISO-10303-21;
