ISO-10303-21;
HEADER;
FILE_DESCRIPTION (( 'STEP AP203' ),
    '1' );
FILE_NAME ('321249.step',
    '2021-11-26T13:01:48',
    ( '' ),
    ( '' ),
    'SwSTEP 2.0',
    'SolidWorks 2019',
    '' );
FILE_SCHEMA (( 'CONFIG_CONTROL_DESIGN' ));
ENDSEC;

DATA;
#1 = CIRCLE ( 'NONE', #39, 1.728999999999999870 ) ;
#2 = LOCAL_TIME ( 14, 1, 48.00000000000000000, #19 ) ;
#3 = APPROVAL_ROLE ( '' ) ;
#4 = CARTESIAN_POINT ( 'NONE',  ( 2.444036937190193601E-13, -7.347880794884121511E-15, 70.00000000000000000 ) ) ;
#5 = AXIS2_PLACEMENT_3D ( 'NONE', #230, #104, #10 ) ;
#6 = ADVANCED_FACE ( 'NONE', ( #190, #91 ), #184, .T. ) ;
#7 =( GEOMETRIC_REPRESENTATION_CONTEXT ( 3 ) GLOBAL_UNCERTAINTY_ASSIGNED_CONTEXT ( ( #147 ) ) GLOBAL_UNIT_ASSIGNED_CONTEXT ( ( #139, #28, #191 ) ) REPRESENTATION_CONTEXT ( 'NONE', 'WORKASPACE' ) );
#8 = DIRECTION ( 'NONE',  ( 1.945799674703697467E-30, -1.000000000000000000, 5.572991764430905231E-16 ) ) ;
#9 = PLANE ( 'NONE',  #154 ) ;
#10 = DIRECTION ( 'NONE',  ( 1.945799674703697467E-30, -1.000000000000000000, 5.572991764430905231E-16 ) ) ;
#11 = EDGE_CURVE ( 'NONE', #122, #122, #211, .T. ) ;
#12 = CIRCLE ( 'NONE', #98, 1.728999999999992987 ) ;
#13 = CYLINDRICAL_SURFACE ( 'NONE', #82, 1.728999999999995651 ) ;
#14 = ORIENTED_EDGE ( 'NONE', *, *, #11, .F. ) ;
#15 = DATE_AND_TIME ( #175, #242 ) ;
#16 = CARTESIAN_POINT ( 'NONE',  ( 3.730959292516311824E-14, 5.955238877922738644E-15, 10.68589211979728759 ) ) ;
#17 = PLANE ( 'NONE',  #222 ) ;
#18 = EDGE_LOOP ( 'NONE', ( #112 ) ) ;
#19 = COORDINATED_UNIVERSAL_TIME_OFFSET ( 1, 0, .AHEAD. ) ;
#20 = COORDINATED_UNIVERSAL_TIME_OFFSET ( 1, 0, .AHEAD. ) ;
#21 = APPLICATION_CONTEXT ( 'configuration controlled 3d designs of mechanical parts and assemblies' ) ;
#22 = CIRCLE ( 'NONE', #107, 1.499999999999992673 ) ;
#23 = PERSON_AND_ORGANIZATION ( #71, #225 ) ;
#24 = CARTESIAN_POINT ( 'NONE',  ( 2.894162063429558304E-30, 4.619569683785137896E-31, 8.289209600611840442E-16 ) ) ;
#25 = DIRECTION ( 'NONE',  ( -3.491481338843133355E-15, 1.049697256412017316E-16, -1.000000000000000000 ) ) ;
#26 = CARTESIAN_POINT ( 'NONE',  ( 3.730959292516311193E-14, 1.728999999999998760, 10.68589211979728582 ) ) ;
#27 = DIRECTION ( 'NONE',  ( 0.0000000000000000000, 1.000000000000000000, 0.0000000000000000000 ) ) ;
#28 =( NAMED_UNIT ( * ) PLANE_ANGLE_UNIT ( ) SI_UNIT ( $, .RADIAN. ) );
#29 = FACE_OUTER_BOUND ( 'NONE', #205, .T. ) ;
#30 = DATE_TIME_ROLE ( 'creation_date' ) ;
#31 = DIRECTION ( 'NONE',  ( 0.0000000000000000000, 1.000000000000000000, 0.0000000000000000000 ) ) ;
#32 = APPROVAL_ROLE ( '' ) ;
#33 = ORIENTED_EDGE ( 'NONE', *, *, #210, .T. ) ;
#34 = ORIENTED_EDGE ( 'NONE', *, *, #143, .T. ) ;
#35 = CC_DESIGN_PERSON_AND_ORGANIZATION_ASSIGNMENT ( #156, #136, ( #90 ) ) ;
#36 = SHAPE_DEFINITION_REPRESENTATION ( #145, #179 ) ;
#37 = DATE_AND_TIME ( #153, #133 ) ;
#38 = LOCAL_TIME ( 14, 1, 48.00000000000000000, #92 ) ;
#39 = AXIS2_PLACEMENT_3D ( 'NONE', #55, #77, #183 ) ;
#40 = LOCAL_TIME ( 14, 1, 48.00000000000000000, #93 ) ;
#41 = FACE_OUTER_BOUND ( 'NONE', #63, .T. ) ;
#42 = EDGE_CURVE ( 'NONE', #74, #74, #12, .T. ) ;
#43 = FACE_BOUND ( 'NONE', #87, .T. ) ;
#44 = DIRECTION ( 'NONE',  ( -3.491481338843133355E-15, 1.049697256412017316E-16, -1.000000000000000000 ) ) ;
#45 = PLANE ( 'NONE',  #5 ) ;
#46 = DIRECTION ( 'NONE',  ( -3.491481338843133355E-15, -5.572991764430905231E-16, -1.000000000000000000 ) ) ;
#47 = PERSON_AND_ORGANIZATION_ROLE ( 'classification_officer' ) ;
#48 = PERSON_AND_ORGANIZATION_ROLE ( 'creator' ) ;
#49 = CARTESIAN_POINT ( 'NONE',  ( 0.0000000000000000000, 0.0000000000000000000, 0.0000000000000000000 ) ) ;
#50 = DIRECTION ( 'NONE',  ( -3.664998382197393967E-31, -1.000000000000000000, -1.049697256412017316E-16 ) ) ;
#51 = CONICAL_SURFACE ( 'NONE', #72, 1.728999999999999870, 0.5235987755982930425 ) ;
#52 = CALENDAR_DATE ( 2021, 26, 11 ) ;
#53 = CLOSED_SHELL ( 'NONE', ( #164, #235, #214, #197 ) ) ;
#54 = DIRECTION ( 'NONE',  ( 0.0000000000000000000, 0.0000000000000000000, 1.000000000000000000 ) ) ;
#55 = CARTESIAN_POINT ( 'NONE',  ( 3.730959292516311193E-14, -1.121695164046600802E-15, 10.68589211979728582 ) ) ;
#56 = CARTESIAN_POINT ( 'NONE',  ( 0.0000000000000000000, 0.0000000000000000000, 0.0000000000000000000 ) ) ;
#57 = FACE_OUTER_BOUND ( 'NONE', #18, .T. ) ;
#58 = DIRECTION ( 'NONE',  ( -3.491481338843133355E-15, -5.572991764430905231E-16, -1.000000000000000000 ) ) ;
#59 = PRODUCT_DEFINITION ( 'UNKNOWN', '', #90, #131 ) ;
#60 = VERTEX_POINT ( 'NONE', #84 ) ;
#61 = ORIENTED_EDGE ( 'NONE', *, *, #243, .T. ) ;
#62 = CARTESIAN_POINT ( 'NONE',  ( 0.0000000000000000000, 0.0000000000000000000, 0.0000000000000000000 ) ) ;
#63 = EDGE_LOOP ( 'NONE', ( #204 ) ) ;
#64 = DATE_AND_TIME ( #236, #38 ) ;
#65 = CYLINDRICAL_SURFACE ( 'NONE', #150, 1.499999999999995337 ) ;
#66 = CIRCLE ( 'NONE', #240, 1.584662432702592660 ) ;
#67 = FACE_OUTER_BOUND ( 'NONE', #223, .T. ) ;
#68 = CALENDAR_DATE ( 2021, 26, 11 ) ;
#69 = MANIFOLD_SOLID_BREP ( 'Corps-Déplacer/Copier1[2]', #53 ) ;
#70 = DIRECTION ( 'NONE',  ( 1.000000000000000000, 0.0000000000000000000, 0.0000000000000000000 ) ) ;
#71 = PERSON ( 'UNSPECIFIED', 'UNSPECIFIED', 'UNSPECIFIED', ('UNSPECIFIED'), ('UNSPECIFIED'), ('UNSPECIFIED') ) ;
#72 = AXIS2_PLACEMENT_3D ( 'NONE', #78, #25, #27 ) ;
#73 = CC_DESIGN_DATE_AND_TIME_ASSIGNMENT ( #15, #30, ( #59 ) ) ;
#74 = VERTEX_POINT ( 'NONE', #138 ) ;
#75 = AXIS2_PLACEMENT_3D ( 'NONE', #100, #181, #212 ) ;
#76 = SECURITY_CLASSIFICATION ( '', '', #220 ) ;
#77 = DIRECTION ( 'NONE',  ( -3.491481338843133355E-15, 1.049697256412017316E-16, -1.000000000000000000 ) ) ;
#78 = CARTESIAN_POINT ( 'NONE',  ( 3.730959292516311193E-14, -1.121695164046600802E-15, 10.68589211979728582 ) ) ;
#79 = ADVANCED_FACE ( 'NONE', ( #234, #169 ), #65, .T. ) ;
#80 = CARTESIAN_POINT ( 'NONE',  ( 2.894162063429558304E-30, 4.619569683785137896E-31, 8.289209600611840442E-16 ) ) ;
#81 = ORIENTED_EDGE ( 'NONE', *, *, #113, .F. ) ;
#82 = AXIS2_PLACEMENT_3D ( 'NONE', #56, #232, #165 ) ;
#83 = CC_DESIGN_SECURITY_CLASSIFICATION ( #76, ( #90 ) ) ;
#84 = CARTESIAN_POINT ( 'NONE',  ( 8.728703347107833388E-16, 1.728999999999998760, 0.2499999999999999445 ) ) ;
#85 = ORIENTED_EDGE ( 'NONE', *, *, #210, .F. ) ;
#86 = PERSON_AND_ORGANIZATION ( #71, #225 ) ;
#87 = EDGE_LOOP ( 'NONE', ( #130 ) ) ;
#88 = CARTESIAN_POINT ( 'NONE',  ( 2.444036937190193601E-13, -7.347880794884121511E-15, 70.00000000000000000 ) ) ;
#89 = CIRCLE ( 'NONE', #101, 1.728999999999998538 ) ;
#90 = PRODUCT_DEFINITION_FORMATION_WITH_SPECIFIED_SOURCE ( 'ANY', '', #126, .NOT_KNOWN. ) ;
#91 = FACE_OUTER_BOUND ( 'NONE', #221, .T. ) ;
#92 = COORDINATED_UNIVERSAL_TIME_OFFSET ( 1, 0, .AHEAD. ) ;
#93 = COORDINATED_UNIVERSAL_TIME_OFFSET ( 1, 0, .AHEAD. ) ;
#94 = DATE_TIME_ROLE ( 'classification_date' ) ;
#95 = CC_DESIGN_DATE_AND_TIME_ASSIGNMENT ( #207, #94, ( #76 ) ) ;
#96 = PERSON_AND_ORGANIZATION ( #71, #225 ) ;
#97 = ADVANCED_FACE ( 'NONE', ( #67 ), #17, .T. ) ;
#98 = AXIS2_PLACEMENT_3D ( 'NONE', #16, #46, #166 ) ;
#99 = FACE_OUTER_BOUND ( 'NONE', #132, .T. ) ;
#100 = CARTESIAN_POINT ( 'NONE',  ( -1.636354614353095266E-30, 1.584662432702592660, -4.686705886548671945E-16 ) ) ;
#101 = AXIS2_PLACEMENT_3D ( 'NONE', #127, #241, #199 ) ;
#102 = FACE_OUTER_BOUND ( 'NONE', #217, .T. ) ;
#103 = CARTESIAN_POINT ( 'NONE',  ( 3.869445280877825183E-14, -1.163330317703974635E-15, 11.08253175473057617 ) ) ;
#104 = DIRECTION ( 'NONE',  ( 3.491481338843133355E-15, 5.572991764430905231E-16, 1.000000000000000000 ) ) ;
#105 = PRODUCT_RELATED_PRODUCT_CATEGORY ( 'detail', '', ( #126 ) ) ;
#106 = ORIENTED_EDGE ( 'NONE', *, *, #42, .F. ) ;
#107 = AXIS2_PLACEMENT_3D ( 'NONE', #103, #215, #124 ) ;
#108 = AXIS2_PLACEMENT_3D ( 'NONE', #62, #54, #70 ) ;
#109 = PERSON_AND_ORGANIZATION ( #71, #225 ) ;
#110 = CARTESIAN_POINT ( 'NONE',  ( 2.433562493173664138E-13, -7.316389877191761450E-15, 69.70000000000001705 ) ) ;
#111 = DIRECTION ( 'NONE',  ( -3.491481338843133355E-15, 1.049697256412017316E-16, -1.000000000000000000 ) ) ;
#112 = ORIENTED_EDGE ( 'NONE', *, *, #113, .T. ) ;
#113 = EDGE_CURVE ( 'NONE', #60, #60, #89, .T. ) ;
#114 = PERSON_AND_ORGANIZATION_ROLE ( 'design_owner' ) ;
#115 = APPROVAL_DATE_TIME ( #200, #118 ) ;
#116 = CONICAL_SURFACE ( 'NONE', #192, 1.584662432702592660, 0.5235987755982970393 ) ;
#117 = APPLICATION_CONTEXT ( 'configuration controlled 3d designs of mechanical parts and assemblies' ) ;
#118 = APPROVAL ( #206, 'UNSPECIFIED' ) ;
#119 = APPROVAL_PERSON_ORGANIZATION ( #86, #208, #32 ) ;
#120 = DIRECTION ( 'NONE',  ( -1.945799674703697467E-30, 1.000000000000000000, -5.572991764430905231E-16 ) ) ;
#121 = CARTESIAN_POINT ( 'NONE',  ( 3.730959292516311193E-14, 1.728999999999998760, 10.68589211979728582 ) ) ;
#122 = VERTEX_POINT ( 'NONE', #233 ) ;
#123 = AXIS2_PLACEMENT_3D ( 'NONE', #4, #182, #194 ) ;
#124 = DIRECTION ( 'NONE',  ( 0.0000000000000000000, 1.000000000000000000, 0.0000000000000000000 ) ) ;
#125 = EDGE_LOOP ( 'NONE', ( #237 ) ) ;
#126 = PRODUCT ( '321249', '321249', '', ( #157 ) ) ;
#127 = CARTESIAN_POINT ( 'NONE',  ( 8.728703347107866915E-16, 1.393247941107731485E-16, 0.2500000000000009437 ) ) ;
#128 = PERSON_AND_ORGANIZATION ( #71, #225 ) ;
#129 = ORIENTED_EDGE ( 'NONE', *, *, #143, .F. ) ;
#130 = ORIENTED_EDGE ( 'NONE', *, *, #140, .F. ) ;
#131 = DESIGN_CONTEXT ( 'detailed design', #21, 'design' ) ;
#132 = EDGE_LOOP ( 'NONE', ( #106 ) ) ;
#133 = LOCAL_TIME ( 14, 1, 48.00000000000000000, #176 ) ;
#134 = APPROVAL_DATE_TIME ( #37, #208 ) ;
#135 = ADVANCED_FACE ( 'NONE', ( #29 ), #9, .T. ) ;
#136 = PERSON_AND_ORGANIZATION_ROLE ( 'creator' ) ;
#137 = APPLICATION_PROTOCOL_DEFINITION ( 'international standard', 'config_control_design', 1994, #21 ) ;
#138 = CARTESIAN_POINT ( 'NONE',  ( 3.730959292516311193E-14, 1.728999999999998760, 10.68589211979728582 ) ) ;
#139 =( LENGTH_UNIT ( ) NAMED_UNIT ( * ) SI_UNIT ( .MILLI., .METRE. ) );
#140 = EDGE_CURVE ( 'NONE', #144, #144, #66, .T. ) ;
#141 = CARTESIAN_POINT ( 'NONE',  ( 3.869445280877825183E-14, 1.499999999999991562, 11.08253175473057617 ) ) ;
#142 = DIRECTION ( 'NONE',  ( 3.664998382197393967E-31, 1.000000000000000000, 1.049697256412017316E-16 ) ) ;
#143 = EDGE_CURVE ( 'NONE', #218, #218, #22, .T. ) ;
#144 = VERTEX_POINT ( 'NONE', #231 ) ;
#145 = PRODUCT_DEFINITION_SHAPE ( 'NONE', 'NONE',  #59 ) ;
#146 = EDGE_LOOP ( 'NONE', ( #33 ) ) ;
#147 = UNCERTAINTY_MEASURE_WITH_UNIT (LENGTH_MEASURE( 1.000000000000000082E-05 ), #139, 'distance_accuracy_value', 'NONE');
#148 = APPROVAL_STATUS ( 'not_yet_approved' ) ;
#149 = ORIENTED_EDGE ( 'NONE', *, *, #140, .T. ) ;
#150 = AXIS2_PLACEMENT_3D ( 'NONE', #49, #111, #188 ) ;
#151 = APPROVAL_PERSON_ORGANIZATION ( #96, #158, #170 ) ;
#152 = DIRECTION ( 'NONE',  ( 0.0000000000000000000, 1.000000000000000000, 0.0000000000000000000 ) ) ;
#153 = CALENDAR_DATE ( 2021, 26, 11 ) ;
#154 = AXIS2_PLACEMENT_3D ( 'NONE', #121, #44, #142 ) ;
#155 = CC_DESIGN_PERSON_AND_ORGANIZATION_ASSIGNMENT ( #226, #47, ( #76 ) ) ;
#156 = PERSON_AND_ORGANIZATION ( #71, #225 ) ;
#157 = MECHANICAL_CONTEXT ( 'NONE', #117, 'mechanical' ) ;
#158 = APPROVAL ( #209, 'UNSPECIFIED' ) ;
#159 = AXIS2_PLACEMENT_3D ( 'NONE', #110, #239, #152 ) ;
#160 = APPROVAL_PERSON_ORGANIZATION ( #23, #118, #3 ) ;
#161 = MANIFOLD_SOLID_BREP ( 'Corps-Déplacer/Copier1[1]', #189 ) ;
#162 = VERTEX_POINT ( 'NONE', #213 ) ;
#163 = DIRECTION ( 'NONE',  ( 3.491481338843133355E-15, 5.572991764430905231E-16, 1.000000000000000000 ) ) ;
#164 = ADVANCED_FACE ( 'NONE', ( #99 ), #45, .T. ) ;
#165 = DIRECTION ( 'NONE',  ( -1.945799674703697467E-30, 1.000000000000000000, -5.572991764430906217E-16 ) ) ;
#166 = DIRECTION ( 'NONE',  ( -3.564474159652504273E-30, 1.000000000000000000, -1.003310281073923757E-15 ) ) ;
#167 = CC_DESIGN_APPROVAL ( #208, ( #76 ) ) ;
#168 = VERTEX_POINT ( 'NONE', #26 ) ;
#169 = FACE_OUTER_BOUND ( 'NONE', #171, .T. ) ;
#170 = APPROVAL_ROLE ( '' ) ;
#171 = EDGE_LOOP ( 'NONE', ( #129 ) ) ;
#172 = DIRECTION ( 'NONE',  ( 3.491481338843133355E-15, -1.049697256412017316E-16, 1.000000000000000000 ) ) ;
#173 = DIRECTION ( 'NONE',  ( -3.491481338843133355E-15, 1.049697256412017316E-16, -1.000000000000000000 ) ) ;
#174 = CC_DESIGN_PERSON_AND_ORGANIZATION_ASSIGNMENT ( #128, #48, ( #59 ) ) ;
#175 = CALENDAR_DATE ( 2021, 26, 11 ) ;
#176 = COORDINATED_UNIVERSAL_TIME_OFFSET ( 1, 0, .AHEAD. ) ;
#177 = CC_DESIGN_PERSON_AND_ORGANIZATION_ASSIGNMENT ( #109, #114, ( #126 ) ) ;
#178 = FACE_OUTER_BOUND ( 'NONE', #202, .T. ) ;
#179 = ADVANCED_BREP_SHAPE_REPRESENTATION ( '321249', ( #161, #69, #108 ), #7 ) ;
#180 = FACE_BOUND ( 'NONE', #219, .T. ) ;
#181 = DIRECTION ( 'NONE',  ( -3.491481338843133355E-15, -5.572991764430905231E-16, -1.000000000000000000 ) ) ;
#182 = DIRECTION ( 'NONE',  ( -3.491481338843133355E-15, 1.049697256412017316E-16, -1.000000000000000000 ) ) ;
#183 = DIRECTION ( 'NONE',  ( 0.0000000000000000000, 1.000000000000000000, 0.0000000000000000000 ) ) ;
#184 = CONICAL_SURFACE ( 'NONE', #196, 1.499999999999997558, 0.7853981633974573828 ) ;
#185 = EDGE_LOOP ( 'NONE', ( #149 ) ) ;
#186 = PERSON_AND_ORGANIZATION_ROLE ( 'design_supplier' ) ;
#187 = ORIENTED_EDGE ( 'NONE', *, *, #243, .F. ) ;
#188 = DIRECTION ( 'NONE',  ( 3.664998382197393967E-31, 1.000000000000000000, 1.049697256412017316E-16 ) ) ;
#189 = CLOSED_SHELL ( 'NONE', ( #97, #6, #79, #201, #135 ) ) ;
#190 = FACE_BOUND ( 'NONE', #146, .T. ) ;
#191 =( NAMED_UNIT ( * ) SI_UNIT ( $, .STERADIAN. ) SOLID_ANGLE_UNIT ( ) );
#192 = AXIS2_PLACEMENT_3D ( 'NONE', #80, #163, #8 ) ;
#193 = CC_DESIGN_PERSON_AND_ORGANIZATION_ASSIGNMENT ( #203, #186, ( #90 ) ) ;
#194 = DIRECTION ( 'NONE',  ( 0.0000000000000000000, 1.000000000000000000, 0.0000000000000000000 ) ) ;
#195 = PLANE ( 'NONE',  #75 ) ;
#196 = AXIS2_PLACEMENT_3D ( 'NONE', #224, #173, #31 ) ;
#197 = ADVANCED_FACE ( 'NONE', ( #198 ), #195, .T. ) ;
#198 = FACE_OUTER_BOUND ( 'NONE', #185, .T. ) ;
#199 = DIRECTION ( 'NONE',  ( -1.893626897315386852E-30, 1.000000000000000000, -5.643620331040802891E-16 ) ) ;
#200 = DATE_AND_TIME ( #68, #40 ) ;
#201 = ADVANCED_FACE ( 'NONE', ( #180, #178 ), #51, .T. ) ;
#202 = EDGE_LOOP ( 'NONE', ( #187 ) ) ;
#203 = PERSON_AND_ORGANIZATION ( #71, #225 ) ;
#204 = ORIENTED_EDGE ( 'NONE', *, *, #42, .T. ) ;
#205 = EDGE_LOOP ( 'NONE', ( #61 ) ) ;
#206 = APPROVAL_STATUS ( 'not_yet_approved' ) ;
#207 = DATE_AND_TIME ( #52, #2 ) ;
#208 = APPROVAL ( #148, 'UNSPECIFIED' ) ;
#209 = APPROVAL_STATUS ( 'not_yet_approved' ) ;
#210 = EDGE_CURVE ( 'NONE', #162, #162, #228, .T. ) ;
#211 = CIRCLE ( 'NONE', #159, 1.499999999999997558 ) ;
#212 = DIRECTION ( 'NONE',  ( -1.945799674703697467E-30, 1.000000000000000000, -5.572991764430905231E-16 ) ) ;
#213 = CARTESIAN_POINT ( 'NONE',  ( 2.444036937190193601E-13, 1.199999999999990186, 70.00000000000000000 ) ) ;
#214 = ADVANCED_FACE ( 'NONE', ( #57, #43 ), #116, .T. ) ;
#215 = DIRECTION ( 'NONE',  ( -3.491481338843133355E-15, 1.049697256412017316E-16, -1.000000000000000000 ) ) ;
#216 = CC_DESIGN_APPROVAL ( #158, ( #90 ) ) ;
#217 = EDGE_LOOP ( 'NONE', ( #81 ) ) ;
#218 = VERTEX_POINT ( 'NONE', #141 ) ;
#219 = EDGE_LOOP ( 'NONE', ( #34 ) ) ;
#220 = SECURITY_CLASSIFICATION_LEVEL ( 'unclassified' ) ;
#221 = EDGE_LOOP ( 'NONE', ( #14 ) ) ;
#222 = AXIS2_PLACEMENT_3D ( 'NONE', #88, #172, #50 ) ;
#223 = EDGE_LOOP ( 'NONE', ( #85 ) ) ;
#224 = CARTESIAN_POINT ( 'NONE',  ( 2.433562493173664138E-13, -7.316389877191761450E-15, 69.70000000000001705 ) ) ;
#225 = ORGANIZATION ( 'UNSPECIFIED', 'UNSPECIFIED', '' ) ;
#226 = PERSON_AND_ORGANIZATION ( #71, #225 ) ;
#227 = APPROVAL_DATE_TIME ( #64, #158 ) ;
#228 = CIRCLE ( 'NONE', #123, 1.199999999999997513 ) ;
#229 = CC_DESIGN_APPROVAL ( #118, ( #59 ) ) ;
#230 = CARTESIAN_POINT ( 'NONE',  ( 3.730959292516311193E-14, 5.955238877922737855E-15, 10.68589211979728582 ) ) ;
#231 = CARTESIAN_POINT ( 'NONE',  ( -1.892735826383161356E-31, 1.584662432702592660, -5.421010862427522170E-17 ) ) ;
#232 = DIRECTION ( 'NONE',  ( -3.491481338843133355E-15, -5.572991764430905231E-16, -1.000000000000000000 ) ) ;
#233 = CARTESIAN_POINT ( 'NONE',  ( 2.433562493173664138E-13, 1.499999999999990230, 69.70000000000001705 ) ) ;
#234 = FACE_OUTER_BOUND ( 'NONE', #125, .T. ) ;
#235 = ADVANCED_FACE ( 'NONE', ( #41, #102 ), #13, .T. ) ;
#236 = CALENDAR_DATE ( 2021, 26, 11 ) ;
#237 = ORIENTED_EDGE ( 'NONE', *, *, #11, .T. ) ;
#238 = APPLICATION_PROTOCOL_DEFINITION ( 'international standard', 'config_control_design', 1994, #117 ) ;
#239 = DIRECTION ( 'NONE',  ( -3.491481338843133355E-15, 1.049697256412017316E-16, -1.000000000000000000 ) ) ;
#240 = AXIS2_PLACEMENT_3D ( 'NONE', #24, #58, #120 ) ;
#241 = DIRECTION ( 'NONE',  ( -3.491481338843133355E-15, -5.572991764430905231E-16, -1.000000000000000000 ) ) ;
#242 = LOCAL_TIME ( 14, 1, 48.00000000000000000, #20 ) ;
#243 = EDGE_CURVE ( 'NONE', #168, #168, #1, .T. ) ;
ENDSEC;
END-ISO-10303-21;
