ISO-10303-21;
HEADER;
FILE_DESCRIPTION (( 'STEP AP203' ),
    '1' );
FILE_NAME ('321248.step',
    '2021-11-26T13:01:47',
    ( '' ),
    ( '' ),
    'SwSTEP 2.0',
    'SolidWorks 2019',
    '' );
FILE_SCHEMA (( 'CONFIG_CONTROL_DESIGN' ));
ENDSEC;

DATA;
#1 = ORIENTED_EDGE ( 'NONE', *, *, #33, .T. ) ;
#2 = AXIS2_PLACEMENT_3D ( 'NONE', #13, #104, #198 ) ;
#3 = CARTESIAN_POINT ( 'NONE',  ( 3.733983004052589328E-14, -1.122604228536936328E-15, 10.69455237383513158 ) ) ;
#4 = EDGE_LOOP ( 'NONE', ( #119 ) ) ;
#5 = EDGE_LOOP ( 'NONE', ( #190 ) ) ;
#6 = AXIS2_PLACEMENT_3D ( 'NONE', #192, #25, #99 ) ;
#7 = DIRECTION ( 'NONE',  ( 3.491481338843133355E-15, 5.566495463624965603E-16, 1.000000000000000000 ) ) ;
#8 = FACE_OUTER_BOUND ( 'NONE', #231, .T. ) ;
#9 = DATE_AND_TIME ( #238, #89 ) ;
#10 = DIRECTION ( 'NONE',  ( 3.664998382197393967E-31, 1.000000000000000000, 1.049697256412017316E-16 ) ) ;
#11 = EDGE_CURVE ( 'NONE', #109, #109, #166, .T. ) ;
#12 = VERTEX_POINT ( 'NONE', #84 ) ;
#13 = CARTESIAN_POINT ( 'NONE',  ( 2.433562493173664138E-13, -7.316389877191761450E-15, 69.70000000000001705 ) ) ;
#14 =( GEOMETRIC_REPRESENTATION_CONTEXT ( 3 ) GLOBAL_UNCERTAINTY_ASSIGNED_CONTEXT ( ( #114 ) ) GLOBAL_UNIT_ASSIGNED_CONTEXT ( ( #132, #55, #71 ) ) REPRESENTATION_CONTEXT ( 'NONE', 'WORKASPACE' ) );
#15 = AXIS2_PLACEMENT_3D ( 'NONE', #70, #35, #10 ) ;
#16 = DIRECTION ( 'NONE',  ( 1.000000000000000000, 0.0000000000000000000, 0.0000000000000000000 ) ) ;
#17 = CC_DESIGN_PERSON_AND_ORGANIZATION_ASSIGNMENT ( #74, #241, ( #95 ) ) ;
#18 = PERSON_AND_ORGANIZATION_ROLE ( 'design_owner' ) ;
#19 = APPROVAL_PERSON_ORGANIZATION ( #37, #81, #165 ) ;
#20 = CIRCLE ( 'NONE', #180, 1.723999999999992871 ) ;
#21 = ADVANCED_FACE ( 'NONE', ( #138, #61 ), #46, .T. ) ;
#22 = EDGE_LOOP ( 'NONE', ( #209 ) ) ;
#23 = CC_DESIGN_APPROVAL ( #87, ( #96 ) ) ;
#24 = EDGE_LOOP ( 'NONE', ( #139 ) ) ;
#25 = DIRECTION ( 'NONE',  ( -3.491481338843133355E-15, -5.566495463624965603E-16, -1.000000000000000000 ) ) ;
#26 = APPLICATION_CONTEXT ( 'configuration controlled 3d designs of mechanical parts and assemblies' ) ;
#27 = ORIENTED_EDGE ( 'NONE', *, *, #11, .T. ) ;
#28 = AXIS2_PLACEMENT_3D ( 'NONE', #144, #7, #233 ) ;
#29 = VERTEX_POINT ( 'NONE', #163 ) ;
#30 = DATE_TIME_ROLE ( 'classification_date' ) ;
#31 = PLANE ( 'NONE',  #28 ) ;
#32 = CYLINDRICAL_SURFACE ( 'NONE', #151, 1.723999999999995758 ) ;
#33 = EDGE_CURVE ( 'NONE', #197, #197, #75, .T. ) ;
#34 = DIRECTION ( 'NONE',  ( 3.664998382197393967E-31, 1.000000000000000000, 1.049697256412017316E-16 ) ) ;
#35 = DIRECTION ( 'NONE',  ( -3.491481338843133355E-15, 1.049697256412017316E-16, -1.000000000000000000 ) ) ;
#36 = PERSON_AND_ORGANIZATION ( #103, #154 ) ;
#37 = PERSON_AND_ORGANIZATION ( #103, #154 ) ;
#38 = CC_DESIGN_DATE_AND_TIME_ASSIGNMENT ( #225, #189, ( #95 ) ) ;
#39 = CALENDAR_DATE ( 2021, 26, 11 ) ;
#40 = AXIS2_PLACEMENT_3D ( 'NONE', #162, #234, #142 ) ;
#41 = ORIENTED_EDGE ( 'NONE', *, *, #57, .T. ) ;
#42 = DIRECTION ( 'NONE',  ( -3.491481338843133355E-15, 1.049697256412017316E-16, -1.000000000000000000 ) ) ;
#43 = EDGE_LOOP ( 'NONE', ( #76 ) ) ;
#44 = FACE_OUTER_BOUND ( 'NONE', #181, .T. ) ;
#45 = LOCAL_TIME ( 14, 1, 47.00000000000000000, #152 ) ;
#46 = CONICAL_SURFACE ( 'NONE', #240, 1.579662432702592545, 0.5235987755982970393 ) ;
#47 = APPROVAL_ROLE ( '' ) ;
#48 = DIRECTION ( 'NONE',  ( -3.491481338843133355E-15, 1.049697256412017316E-16, -1.000000000000000000 ) ) ;
#49 = CARTESIAN_POINT ( 'NONE',  ( 2.444036937190193601E-13, -7.347880794884121511E-15, 70.00000000000000000 ) ) ;
#50 = DIRECTION ( 'NONE',  ( -3.574811961739663596E-30, 1.000000000000000000, -1.006220113675646299E-15 ) ) ;
#51 = AXIS2_PLACEMENT_3D ( 'NONE', #223, #48, #52 ) ;
#52 = DIRECTION ( 'NONE',  ( 0.0000000000000000000, 1.000000000000000000, 0.0000000000000000000 ) ) ;
#53 = APPROVAL_DATE_TIME ( #149, #81 ) ;
#54 = EDGE_CURVE ( 'NONE', #12, #12, #58, .T. ) ;
#55 =( NAMED_UNIT ( * ) PLANE_ANGLE_UNIT ( ) SI_UNIT ( $, .RADIAN. ) );
#56 = COORDINATED_UNIVERSAL_TIME_OFFSET ( 1, 0, .AHEAD. ) ;
#57 = EDGE_CURVE ( 'NONE', #29, #29, #173, .T. ) ;
#58 = CIRCLE ( 'NONE', #196, 1.723999999999999755 ) ;
#59 = CC_DESIGN_APPROVAL ( #81, ( #80 ) ) ;
#60 = CLOSED_SHELL ( 'NONE', ( #204, #227, #21, #178 ) ) ;
#61 = FACE_BOUND ( 'NONE', #215, .T. ) ;
#62 = EDGE_LOOP ( 'NONE', ( #1 ) ) ;
#63 = DIRECTION ( 'NONE',  ( -3.491481338843133355E-15, 1.049697256412017316E-16, -1.000000000000000000 ) ) ;
#64 = APPROVAL_DATE_TIME ( #9, #87 ) ;
#65 = PLANE ( 'NONE',  #40 ) ;
#66 = FACE_BOUND ( 'NONE', #77, .T. ) ;
#67 = APPROVAL_STATUS ( 'not_yet_approved' ) ;
#68 = MANIFOLD_SOLID_BREP ( 'Corps-Déplacer/Copier1[2]', #60 ) ;
#69 = CARTESIAN_POINT ( 'NONE',  ( 0.0000000000000000000, 0.0000000000000000000, 0.0000000000000000000 ) ) ;
#70 = CARTESIAN_POINT ( 'NONE',  ( 0.0000000000000000000, 0.0000000000000000000, 0.0000000000000000000 ) ) ;
#71 =( NAMED_UNIT ( * ) SI_UNIT ( $, .STERADIAN. ) SOLID_ANGLE_UNIT ( ) );
#72 = SECURITY_CLASSIFICATION_LEVEL ( 'unclassified' ) ;
#73 = CC_DESIGN_APPROVAL ( #194, ( #95 ) ) ;
#74 = PERSON_AND_ORGANIZATION ( #103, #154 ) ;
#75 = CIRCLE ( 'NONE', #97, 1.499999999999997558 ) ;
#76 = ORIENTED_EDGE ( 'NONE', *, *, #11, .F. ) ;
#77 = EDGE_LOOP ( 'NONE', ( #27 ) ) ;
#78 = CARTESIAN_POINT ( 'NONE',  ( -1.892735826383164860E-31, 1.579662432702592545, -5.421010862427522170E-17 ) ) ;
#79 = FACE_OUTER_BOUND ( 'NONE', #62, .T. ) ;
#80 = PRODUCT_DEFINITION_FORMATION_WITH_SPECIFIED_SOURCE ( 'ANY', '', #226, .NOT_KNOWN. ) ;
#81 = APPROVAL ( #170, 'UNSPECIFIED' ) ;
#82 = DIRECTION ( 'NONE',  ( -1.943531503400152096E-30, 1.000000000000000000, -5.566495463624965603E-16 ) ) ;
#83 = PERSON_AND_ORGANIZATION_ROLE ( 'classification_officer' ) ;
#84 = CARTESIAN_POINT ( 'NONE',  ( 3.733983004052589328E-14, 1.723999999999998645, 10.69455237383513158 ) ) ;
#85 = COORDINATED_UNIVERSAL_TIME_OFFSET ( 1, 0, .AHEAD. ) ;
#86 = CARTESIAN_POINT ( 'NONE',  ( 0.0000000000000000000, 0.0000000000000000000, 0.0000000000000000000 ) ) ;
#87 = APPROVAL ( #67, 'UNSPECIFIED' ) ;
#88 = APPROVAL_PERSON_ORGANIZATION ( #143, #87, #47 ) ;
#89 = LOCAL_TIME ( 14, 1, 47.00000000000000000, #85 ) ;
#90 = DESIGN_CONTEXT ( 'detailed design', #107, 'design' ) ;
#91 = APPROVAL_ROLE ( '' ) ;
#92 = APPROVAL_DATE_TIME ( #168, #194 ) ;
#93 = COORDINATED_UNIVERSAL_TIME_OFFSET ( 1, 0, .AHEAD. ) ;
#94 = ORIENTED_EDGE ( 'NONE', *, *, #33, .F. ) ;
#95 = PRODUCT_DEFINITION ( 'UNKNOWN', '', #80, #90 ) ;
#96 = SECURITY_CLASSIFICATION ( '', '', #72 ) ;
#97 = AXIS2_PLACEMENT_3D ( 'NONE', #98, #177, #211 ) ;
#98 = CARTESIAN_POINT ( 'NONE',  ( 2.433562493173664138E-13, -7.316389877191761450E-15, 69.70000000000001705 ) ) ;
#99 = DIRECTION ( 'NONE',  ( -1.899118854674190133E-30, 1.000000000000000000, -5.659988139425491570E-16 ) ) ;
#100 = EDGE_CURVE ( 'NONE', #102, #102, #124, .T. ) ;
#101 = ORIENTED_EDGE ( 'NONE', *, *, #100, .F. ) ;
#102 = VERTEX_POINT ( 'NONE', #78 ) ;
#103 = PERSON ( 'UNSPECIFIED', 'UNSPECIFIED', 'UNSPECIFIED', ('UNSPECIFIED'), ('UNSPECIFIED'), ('UNSPECIFIED') ) ;
#104 = DIRECTION ( 'NONE',  ( -3.491481338843133355E-15, 1.049697256412017316E-16, -1.000000000000000000 ) ) ;
#105 = ADVANCED_FACE ( 'NONE', ( #79, #108 ), #145, .T. ) ;
#106 = DATE_AND_TIME ( #218, #217 ) ;
#107 = APPLICATION_CONTEXT ( 'configuration controlled 3d designs of mechanical parts and assemblies' ) ;
#108 = FACE_OUTER_BOUND ( 'NONE', #43, .T. ) ;
#109 = VERTEX_POINT ( 'NONE', #185 ) ;
#110 = CC_DESIGN_PERSON_AND_ORGANIZATION_ASSIGNMENT ( #36, #83, ( #96 ) ) ;
#111 = PERSON_AND_ORGANIZATION_ROLE ( 'creator' ) ;
#112 = AXIS2_PLACEMENT_3D ( 'NONE', #49, #186, #199 ) ;
#113 = DIRECTION ( 'NONE',  ( 0.0000000000000000000, 0.0000000000000000000, 1.000000000000000000 ) ) ;
#114 = UNCERTAINTY_MEASURE_WITH_UNIT (LENGTH_MEASURE( 1.000000000000000082E-05 ), #132, 'distance_accuracy_value', 'NONE');
#115 = APPLICATION_PROTOCOL_DEFINITION ( 'international standard', 'config_control_design', 1994, #26 ) ;
#116 = CALENDAR_DATE ( 2021, 26, 11 ) ;
#117 = AXIS2_PLACEMENT_3D ( 'NONE', #86, #113, #16 ) ;
#118 = ADVANCED_FACE ( 'NONE', ( #183 ), #65, .T. ) ;
#119 = ORIENTED_EDGE ( 'NONE', *, *, #153, .T. ) ;
#120 = ORIENTED_EDGE ( 'NONE', *, *, #100, .T. ) ;
#121 = DIRECTION ( 'NONE',  ( 0.0000000000000000000, 1.000000000000000000, 0.0000000000000000000 ) ) ;
#122 = ORIENTED_EDGE ( 'NONE', *, *, #54, .F. ) ;
#123 = FACE_OUTER_BOUND ( 'NONE', #213, .T. ) ;
#124 = CIRCLE ( 'NONE', #148, 1.579662432702592545 ) ;
#125 = EDGE_CURVE ( 'NONE', #239, #239, #219, .T. ) ;
#126 = CARTESIAN_POINT ( 'NONE',  ( -1.629698642666763997E-30, 1.579662432702592545, -4.667642425970255931E-16 ) ) ;
#127 = CARTESIAN_POINT ( 'NONE',  ( 3.733983004052589960E-14, 1.723999999999998645, 10.69455237383513335 ) ) ;
#128 = CARTESIAN_POINT ( 'NONE',  ( 3.733983004052589960E-14, 5.953117727445286977E-15, 10.69455237383513335 ) ) ;
#129 = CONICAL_SURFACE ( 'NONE', #2, 1.499999999999997558, 0.7853981633974573828 ) ;
#130 = DIRECTION ( 'NONE',  ( -3.491481338843133355E-15, -5.566495463624965603E-16, -1.000000000000000000 ) ) ;
#131 = CALENDAR_DATE ( 2021, 26, 11 ) ;
#132 =( LENGTH_UNIT ( ) NAMED_UNIT ( * ) SI_UNIT ( .MILLI., .METRE. ) );
#133 = MECHANICAL_CONTEXT ( 'NONE', #26, 'mechanical' ) ;
#134 = CC_DESIGN_SECURITY_CLASSIFICATION ( #96, ( #80 ) ) ;
#135 = ADVANCED_FACE ( 'NONE', ( #220, #44 ), #129, .T. ) ;
#136 = DIRECTION ( 'NONE',  ( 3.491481338843133355E-15, 5.566495463624965603E-16, 1.000000000000000000 ) ) ;
#137 = CARTESIAN_POINT ( 'NONE',  ( 3.869445280877825183E-14, -1.163330317703974635E-15, 11.08253175473057617 ) ) ;
#138 = FACE_OUTER_BOUND ( 'NONE', #195, .T. ) ;
#139 = ORIENTED_EDGE ( 'NONE', *, *, #125, .T. ) ;
#140 = DIRECTION ( 'NONE',  ( -3.491481338843133355E-15, -5.566495463624965603E-16, -1.000000000000000000 ) ) ;
#141 = ADVANCED_FACE ( 'NONE', ( #66, #8 ), #156, .T. ) ;
#142 = DIRECTION ( 'NONE',  ( -3.664998382197393967E-31, -1.000000000000000000, -1.049697256412017316E-16 ) ) ;
#143 = PERSON_AND_ORGANIZATION ( #103, #154 ) ;
#144 = CARTESIAN_POINT ( 'NONE',  ( 3.733983004052589960E-14, 5.953117727445287766E-15, 10.69455237383513335 ) ) ;
#145 = CYLINDRICAL_SURFACE ( 'NONE', #15, 1.499999999999995337 ) ;
#146 = CC_DESIGN_PERSON_AND_ORGANIZATION_ASSIGNMENT ( #205, #111, ( #80 ) ) ;
#147 = CARTESIAN_POINT ( 'NONE',  ( 2.444036937190193601E-13, 1.199999999999990186, 70.00000000000000000 ) ) ;
#148 = AXIS2_PLACEMENT_3D ( 'NONE', #179, #235, #161 ) ;
#149 = DATE_AND_TIME ( #116, #232 ) ;
#150 = PERSON_AND_ORGANIZATION ( #103, #154 ) ;
#151 = AXIS2_PLACEMENT_3D ( 'NONE', #69, #184, #82 ) ;
#152 = COORDINATED_UNIVERSAL_TIME_OFFSET ( 1, 0, .AHEAD. ) ;
#153 = EDGE_CURVE ( 'NONE', #224, #224, #20, .T. ) ;
#154 = ORGANIZATION ( 'UNSPECIFIED', 'UNSPECIFIED', '' ) ;
#155 = CARTESIAN_POINT ( 'NONE',  ( 2.880850120056895417E-30, 4.592961430518082943E-31, 8.251082679455006441E-16 ) ) ;
#156 = CONICAL_SURFACE ( 'NONE', #51, 1.723999999999999755, 0.5235987755982938197 ) ;
#157 = EDGE_LOOP ( 'NONE', ( #193 ) ) ;
#158 = DIRECTION ( 'NONE',  ( -1.943531503400152446E-30, 1.000000000000000000, -5.566495463624965603E-16 ) ) ;
#159 = PRODUCT_RELATED_PRODUCT_CATEGORY ( 'detail', '', ( #226 ) ) ;
#160 = FACE_OUTER_BOUND ( 'NONE', #175, .T. ) ;
#161 = DIRECTION ( 'NONE',  ( -1.943531503400152446E-30, 1.000000000000000000, -5.566495463624965603E-16 ) ) ;
#162 = CARTESIAN_POINT ( 'NONE',  ( 2.444036937190193601E-13, -7.347880794884121511E-15, 70.00000000000000000 ) ) ;
#163 = CARTESIAN_POINT ( 'NONE',  ( 8.728703347107833388E-16, 1.723999999999998645, 0.2499999999999999445 ) ) ;
#164 = CLOSED_SHELL ( 'NONE', ( #118, #135, #105, #141, #214 ) ) ;
#165 = APPROVAL_ROLE ( '' ) ;
#166 = CIRCLE ( 'NONE', #212, 1.499999999999992673 ) ;
#167 = COORDINATED_UNIVERSAL_TIME_OFFSET ( 1, 0, .AHEAD. ) ;
#168 = DATE_AND_TIME ( #131, #176 ) ;
#169 = CC_DESIGN_PERSON_AND_ORGANIZATION_ASSIGNMENT ( #188, #18, ( #226 ) ) ;
#170 = APPROVAL_STATUS ( 'not_yet_approved' ) ;
#171 = PERSON_AND_ORGANIZATION ( #103, #154 ) ;
#172 = AXIS2_PLACEMENT_3D ( 'NONE', #127, #63, #34 ) ;
#173 = CIRCLE ( 'NONE', #6, 1.723999999999998645 ) ;
#174 = CC_DESIGN_DATE_AND_TIME_ASSIGNMENT ( #106, #30, ( #96 ) ) ;
#175 = EDGE_LOOP ( 'NONE', ( #120 ) ) ;
#176 = LOCAL_TIME ( 14, 1, 47.00000000000000000, #93 ) ;
#177 = DIRECTION ( 'NONE',  ( -3.491481338843133355E-15, 1.049697256412017316E-16, -1.000000000000000000 ) ) ;
#178 = ADVANCED_FACE ( 'NONE', ( #160 ), #201, .T. ) ;
#179 = CARTESIAN_POINT ( 'NONE',  ( 2.880850120056895417E-30, 4.592961430518082943E-31, 8.251082679455006441E-16 ) ) ;
#180 = AXIS2_PLACEMENT_3D ( 'NONE', #128, #140, #50 ) ;
#181 = EDGE_LOOP ( 'NONE', ( #94 ) ) ;
#182 = CARTESIAN_POINT ( 'NONE',  ( 2.433562493173664138E-13, 1.499999999999990230, 69.70000000000001705 ) ) ;
#183 = FACE_OUTER_BOUND ( 'NONE', #5, .T. ) ;
#184 = DIRECTION ( 'NONE',  ( -3.491481338843133355E-15, -5.566495463624965603E-16, -1.000000000000000000 ) ) ;
#185 = CARTESIAN_POINT ( 'NONE',  ( 3.869445280877825183E-14, 1.499999999999991562, 11.08253175473057617 ) ) ;
#186 = DIRECTION ( 'NONE',  ( -3.491481338843133355E-15, 1.049697256412017316E-16, -1.000000000000000000 ) ) ;
#187 = CARTESIAN_POINT ( 'NONE',  ( 3.733983004052589328E-14, 1.723999999999998645, 10.69455237383513158 ) ) ;
#188 = PERSON_AND_ORGANIZATION ( #103, #154 ) ;
#189 = DATE_TIME_ROLE ( 'creation_date' ) ;
#190 = ORIENTED_EDGE ( 'NONE', *, *, #125, .F. ) ;
#191 = DIRECTION ( 'NONE',  ( -3.491481338843133355E-15, 1.049697256412017316E-16, -1.000000000000000000 ) ) ;
#192 = CARTESIAN_POINT ( 'NONE',  ( 8.728703347107866915E-16, 1.391623865906246578E-16, 0.2500000000000009437 ) ) ;
#193 = ORIENTED_EDGE ( 'NONE', *, *, #54, .T. ) ;
#194 = APPROVAL ( #243, 'UNSPECIFIED' ) ;
#195 = EDGE_LOOP ( 'NONE', ( #41 ) ) ;
#196 = AXIS2_PLACEMENT_3D ( 'NONE', #3, #42, #121 ) ;
#197 = VERTEX_POINT ( 'NONE', #182 ) ;
#198 = DIRECTION ( 'NONE',  ( 0.0000000000000000000, 1.000000000000000000, 0.0000000000000000000 ) ) ;
#199 = DIRECTION ( 'NONE',  ( 0.0000000000000000000, 1.000000000000000000, 0.0000000000000000000 ) ) ;
#200 = APPROVAL_PERSON_ORGANIZATION ( #171, #194, #91 ) ;
#201 = PLANE ( 'NONE',  #208 ) ;
#202 = FACE_OUTER_BOUND ( 'NONE', #22, .T. ) ;
#203 = PRODUCT_DEFINITION_SHAPE ( 'NONE', 'NONE',  #95 ) ;
#204 = ADVANCED_FACE ( 'NONE', ( #202 ), #31, .T. ) ;
#205 = PERSON_AND_ORGANIZATION ( #103, #154 ) ;
#206 = ADVANCED_BREP_SHAPE_REPRESENTATION ( '321248', ( #236, #68, #117 ), #14 ) ;
#207 = APPLICATION_PROTOCOL_DEFINITION ( 'international standard', 'config_control_design', 1994, #107 ) ;
#208 = AXIS2_PLACEMENT_3D ( 'NONE', #126, #130, #158 ) ;
#209 = ORIENTED_EDGE ( 'NONE', *, *, #153, .F. ) ;
#210 = DIRECTION ( 'NONE',  ( 0.0000000000000000000, 1.000000000000000000, 0.0000000000000000000 ) ) ;
#211 = DIRECTION ( 'NONE',  ( 0.0000000000000000000, 1.000000000000000000, 0.0000000000000000000 ) ) ;
#212 = AXIS2_PLACEMENT_3D ( 'NONE', #137, #191, #210 ) ;
#213 = EDGE_LOOP ( 'NONE', ( #228 ) ) ;
#214 = ADVANCED_FACE ( 'NONE', ( #221 ), #237, .T. ) ;
#215 = EDGE_LOOP ( 'NONE', ( #101 ) ) ;
#216 = FACE_OUTER_BOUND ( 'NONE', #4, .T. ) ;
#217 = LOCAL_TIME ( 14, 1, 47.00000000000000000, #167 ) ;
#218 = CALENDAR_DATE ( 2021, 26, 11 ) ;
#219 = CIRCLE ( 'NONE', #112, 1.199999999999997513 ) ;
#220 = FACE_BOUND ( 'NONE', #24, .T. ) ;
#221 = FACE_OUTER_BOUND ( 'NONE', #157, .T. ) ;
#222 = SHAPE_DEFINITION_REPRESENTATION ( #203, #206 ) ;
#223 = CARTESIAN_POINT ( 'NONE',  ( 3.733983004052589328E-14, -1.122604228536936328E-15, 10.69455237383513158 ) ) ;
#224 = VERTEX_POINT ( 'NONE', #187 ) ;
#225 = DATE_AND_TIME ( #39, #45 ) ;
#226 = PRODUCT ( '321248', '321248', '', ( #133 ) ) ;
#227 = ADVANCED_FACE ( 'NONE', ( #216, #123 ), #32, .T. ) ;
#228 = ORIENTED_EDGE ( 'NONE', *, *, #57, .F. ) ;
#229 = DIRECTION ( 'NONE',  ( 1.943531503400152796E-30, -1.000000000000000000, 5.566495463624965603E-16 ) ) ;
#230 = CC_DESIGN_PERSON_AND_ORGANIZATION_ASSIGNMENT ( #150, #242, ( #80 ) ) ;
#231 = EDGE_LOOP ( 'NONE', ( #122 ) ) ;
#232 = LOCAL_TIME ( 14, 1, 47.00000000000000000, #56 ) ;
#233 = DIRECTION ( 'NONE',  ( 1.943531503400152446E-30, -1.000000000000000000, 5.566495463624965603E-16 ) ) ;
#234 = DIRECTION ( 'NONE',  ( 3.491481338843133355E-15, -1.049697256412017316E-16, 1.000000000000000000 ) ) ;
#235 = DIRECTION ( 'NONE',  ( -3.491481338843133355E-15, -5.566495463624965603E-16, -1.000000000000000000 ) ) ;
#236 = MANIFOLD_SOLID_BREP ( 'Corps-Déplacer/Copier1[1]', #164 ) ;
#237 = PLANE ( 'NONE',  #172 ) ;
#238 = CALENDAR_DATE ( 2021, 26, 11 ) ;
#239 = VERTEX_POINT ( 'NONE', #147 ) ;
#240 = AXIS2_PLACEMENT_3D ( 'NONE', #155, #136, #229 ) ;
#241 = PERSON_AND_ORGANIZATION_ROLE ( 'creator' ) ;
#242 = PERSON_AND_ORGANIZATION_ROLE ( 'design_supplier' ) ;
#243 = APPROVAL_STATUS ( 'not_yet_approved' ) ;
ENDSEC;
END-ISO-10303-21;
