ISO-10303-21;
HEADER;
FILE_DESCRIPTION (( 'STEP AP203' ),
    '1' );
FILE_NAME ('321247.step',
    '2021-11-26T13:01:47',
    ( '' ),
    ( '' ),
    'SwSTEP 2.0',
    'SolidWorks 2019',
    '' );
FILE_SCHEMA (( 'CONFIG_CONTROL_DESIGN' ));
ENDSEC;

DATA;
#1 = FACE_OUTER_BOUND ( 'NONE', #68, .T. ) ;
#2 = VERTEX_POINT ( 'NONE', #96 ) ;
#3 = LOCAL_TIME ( 14, 1, 47.00000000000000000, #233 ) ;
#4 = DIRECTION ( 'NONE',  ( 3.491481338843133355E-15, 5.560009675478589936E-16, 1.000000000000000000 ) ) ;
#5 = AXIS2_PLACEMENT_3D ( 'NONE', #143, #215, #179 ) ;
#6 = PERSON_AND_ORGANIZATION_ROLE ( 'creator' ) ;
#7 = PERSON_AND_ORGANIZATION ( #67, #141 ) ;
#8 = EDGE_LOOP ( 'NONE', ( #231 ) ) ;
#9 = ADVANCED_FACE ( 'NONE', ( #66, #28 ), #88, .T. ) ;
#10 = EDGE_LOOP ( 'NONE', ( #51 ) ) ;
#11 = PERSON_AND_ORGANIZATION ( #67, #141 ) ;
#12 = ORIENTED_EDGE ( 'NONE', *, *, #29, .F. ) ;
#13 = CC_DESIGN_APPROVAL ( #166, ( #230 ) ) ;
#14 = FACE_OUTER_BOUND ( 'NONE', #174, .T. ) ;
#15 = DIRECTION ( 'NONE',  ( -1.941267002572076240E-30, 1.000000000000000000, -5.560009675478590922E-16 ) ) ;
#16 = DIRECTION ( 'NONE',  ( -3.491481338843133355E-15, -5.560009675478589936E-16, -1.000000000000000000 ) ) ;
#17 = CARTESIAN_POINT ( 'NONE',  ( 3.737006715588866833E-14, 5.950996576967836889E-15, 10.70321262787297556 ) ) ;
#18 = APPROVAL ( #211, 'UNSPECIFIED' ) ;
#19 = DIRECTION ( 'NONE',  ( 0.0000000000000000000, 1.000000000000000000, 0.0000000000000000000 ) ) ;
#20 = DIRECTION ( 'NONE',  ( 1.941267002572076591E-30, -1.000000000000000000, 5.560009675478589936E-16 ) ) ;
#21 = CLOSED_SHELL ( 'NONE', ( #225, #9, #97, #222 ) ) ;
#22 =( NAMED_UNIT ( * ) PLANE_ANGLE_UNIT ( ) SI_UNIT ( $, .RADIAN. ) );
#23 = PERSON_AND_ORGANIZATION ( #67, #141 ) ;
#24 = CARTESIAN_POINT ( 'NONE',  ( 3.869445280877825183E-14, -1.163330317703974635E-15, 11.08253175473057617 ) ) ;
#25 = COORDINATED_UNIVERSAL_TIME_OFFSET ( 1, 0, .AHEAD. ) ;
#26 = ORIENTED_EDGE ( 'NONE', *, *, #236, .F. ) ;
#27 = COORDINATED_UNIVERSAL_TIME_OFFSET ( 1, 0, .AHEAD. ) ;
#28 = FACE_OUTER_BOUND ( 'NONE', #84, .T. ) ;
#29 = EDGE_CURVE ( 'NONE', #117, #117, #34, .T. ) ;
#30 = CLOSED_SHELL ( 'NONE', ( #137, #63, #184, #57, #209 ) ) ;
#31 = LOCAL_TIME ( 14, 1, 47.00000000000000000, #167 ) ;
#32 = DESIGN_CONTEXT ( 'detailed design', #86, 'design' ) ;
#33 = PLANE ( 'NONE',  #107 ) ;
#34 = CIRCLE ( 'NONE', #134, 1.499999999999997558 ) ;
#35 = EDGE_CURVE ( 'NONE', #62, #62, #61, .T. ) ;
#36 = DIRECTION ( 'NONE',  ( -1.941267002572076240E-30, 1.000000000000000000, -5.560009675478589936E-16 ) ) ;
#37 = DIRECTION ( 'NONE',  ( -3.491481338843133355E-15, 1.049697256412017316E-16, -1.000000000000000000 ) ) ;
#38 = DIRECTION ( 'NONE',  ( 3.664998382197393967E-31, 1.000000000000000000, 1.049697256412017316E-16 ) ) ;
#39 = CARTESIAN_POINT ( 'NONE',  ( 3.737006715588866202E-14, -1.123513293027271855E-15, 10.70321262787297378 ) ) ;
#40 = APPLICATION_CONTEXT ( 'configuration controlled 3d designs of mechanical parts and assemblies' ) ;
#41 = DATE_AND_TIME ( #165, #150 ) ;
#42 = DATE_TIME_ROLE ( 'creation_date' ) ;
#43 = CARTESIAN_POINT ( 'NONE',  ( 3.869445280877825183E-14, 1.499999999999991562, 11.08253175473057617 ) ) ;
#44 = CIRCLE ( 'NONE', #180, 1.718999999999999861 ) ;
#45 = CC_DESIGN_PERSON_AND_ORGANIZATION_ASSIGNMENT ( #64, #106, ( #102 ) ) ;
#46 = APPROVAL_PERSON_ORGANIZATION ( #116, #118, #224 ) ;
#47 = CC_DESIGN_DATE_AND_TIME_ASSIGNMENT ( #41, #42, ( #230 ) ) ;
#48 = CALENDAR_DATE ( 2021, 26, 11 ) ;
#49 = EDGE_LOOP ( 'NONE', ( #214 ) ) ;
#50 = DATE_TIME_ROLE ( 'classification_date' ) ;
#51 = ORIENTED_EDGE ( 'NONE', *, *, #126, .T. ) ;
#52 = CC_DESIGN_PERSON_AND_ORGANIZATION_ASSIGNMENT ( #130, #6, ( #230 ) ) ;
#53 = CARTESIAN_POINT ( 'NONE',  ( 2.444036937190193601E-13, -7.347880794884121511E-15, 70.00000000000000000 ) ) ;
#54 = CONICAL_SURFACE ( 'NONE', #185, 1.574662432702592652, 0.5235987755982970393 ) ;
#55 = DIRECTION ( 'NONE',  ( 1.941267002572076591E-30, -1.000000000000000000, 5.560009675478589936E-16 ) ) ;
#56 = CARTESIAN_POINT ( 'NONE',  ( 8.728703347107866915E-16, 1.390002418869652661E-16, 0.2500000000000009437 ) ) ;
#57 = ADVANCED_FACE ( 'NONE', ( #125, #148 ), #78, .T. ) ;
#58 = CARTESIAN_POINT ( 'NONE',  ( 2.444036937190193601E-13, -7.347880794884121511E-15, 70.00000000000000000 ) ) ;
#59 = AXIS2_PLACEMENT_3D ( 'NONE', #99, #186, #60 ) ;
#60 = DIRECTION ( 'NONE',  ( 1.000000000000000000, 0.0000000000000000000, 0.0000000000000000000 ) ) ;
#61 = CIRCLE ( 'NONE', #81, 1.199999999999997513 ) ;
#62 = VERTEX_POINT ( 'NONE', #183 ) ;
#63 = ADVANCED_FACE ( 'NONE', ( #181, #145 ), #154, .T. ) ;
#64 = PERSON_AND_ORGANIZATION ( #67, #141 ) ;
#65 = PERSON_AND_ORGANIZATION_ROLE ( 'design_supplier' ) ;
#66 = FACE_OUTER_BOUND ( 'NONE', #10, .T. ) ;
#67 = PERSON ( 'UNSPECIFIED', 'UNSPECIFIED', 'UNSPECIFIED', ('UNSPECIFIED'), ('UNSPECIFIED'), ('UNSPECIFIED') ) ;
#68 = EDGE_LOOP ( 'NONE', ( #170 ) ) ;
#69 = PERSON_AND_ORGANIZATION_ROLE ( 'creator' ) ;
#70 = CIRCLE ( 'NONE', #158, 1.574662432702592652 ) ;
#71 = CIRCLE ( 'NONE', #135, 1.499999999999992673 ) ;
#72 = DIRECTION ( 'NONE',  ( 3.664998382197393967E-31, 1.000000000000000000, 1.049697256412017316E-16 ) ) ;
#73 = CARTESIAN_POINT ( 'NONE',  ( 2.433562493173664138E-13, -7.316389877191761450E-15, 69.70000000000001705 ) ) ;
#74 = CARTESIAN_POINT ( 'NONE',  ( 2.867566638157099922E-30, 4.566456671515783955E-31, 8.213037275196317635E-16 ) ) ;
#75 = MANIFOLD_SOLID_BREP ( 'Corps-Déplacer/Copier1[1]', #30 ) ;
#76 = DIRECTION ( 'NONE',  ( 0.0000000000000000000, 1.000000000000000000, 0.0000000000000000000 ) ) ;
#77 = CARTESIAN_POINT ( 'NONE',  ( 0.0000000000000000000, 0.0000000000000000000, 0.0000000000000000000 ) ) ;
#78 = CONICAL_SURFACE ( 'NONE', #227, 1.718999999999999861, 0.5235987755982925984 ) ;
#79 = APPROVAL_STATUS ( 'not_yet_approved' ) ;
#80 = DIRECTION ( 'NONE',  ( -3.491481338843133355E-15, 1.049697256412017316E-16, -1.000000000000000000 ) ) ;
#81 = AXIS2_PLACEMENT_3D ( 'NONE', #58, #200, #218 ) ;
#82 = PERSON_AND_ORGANIZATION ( #67, #141 ) ;
#83 = SECURITY_CLASSIFICATION_LEVEL ( 'unclassified' ) ;
#84 = EDGE_LOOP ( 'NONE', ( #173 ) ) ;
#85 = CC_DESIGN_SECURITY_CLASSIFICATION ( #102, ( #191 ) ) ;
#86 = APPLICATION_CONTEXT ( 'configuration controlled 3d designs of mechanical parts and assemblies' ) ;
#87 = CC_DESIGN_PERSON_AND_ORGANIZATION_ASSIGNMENT ( #7, #69, ( #191 ) ) ;
#88 = CYLINDRICAL_SURFACE ( 'NONE', #122, 1.718999999999995643 ) ;
#89 = CC_DESIGN_PERSON_AND_ORGANIZATION_ASSIGNMENT ( #187, #220, ( #234 ) ) ;
#90 = CIRCLE ( 'NONE', #109, 1.718999999999998529 ) ;
#91 = DIRECTION ( 'NONE',  ( -3.491481338843133355E-15, 1.049697256412017316E-16, -1.000000000000000000 ) ) ;
#92 = FACE_OUTER_BOUND ( 'NONE', #49, .T. ) ;
#93 = DIRECTION ( 'NONE',  ( 0.0000000000000000000, 1.000000000000000000, 0.0000000000000000000 ) ) ;
#94 = FACE_OUTER_BOUND ( 'NONE', #8, .T. ) ;
#95 = CARTESIAN_POINT ( 'NONE',  ( 2.867566638157099922E-30, 4.566456671515783955E-31, 8.213037275196317635E-16 ) ) ;
#96 = CARTESIAN_POINT ( 'NONE',  ( 8.728703347107833388E-16, 1.718999999999998751, 0.2499999999999999445 ) ) ;
#97 = ADVANCED_FACE ( 'NONE', ( #161, #242 ), #54, .T. ) ;
#98 = MECHANICAL_CONTEXT ( 'NONE', #40, 'mechanical' ) ;
#99 = CARTESIAN_POINT ( 'NONE',  ( 0.0000000000000000000, 0.0000000000000000000, 0.0000000000000000000 ) ) ;
#100 = APPROVAL_STATUS ( 'not_yet_approved' ) ;
#101 = VERTEX_POINT ( 'NONE', #136 ) ;
#102 = SECURITY_CLASSIFICATION ( '', '', #83 ) ;
#103 = CALENDAR_DATE ( 2021, 26, 11 ) ;
#104 = ORIENTED_EDGE ( 'NONE', *, *, #35, .F. ) ;
#105 = CC_DESIGN_PERSON_AND_ORGANIZATION_ASSIGNMENT ( #82, #65, ( #191 ) ) ;
#106 = PERSON_AND_ORGANIZATION_ROLE ( 'classification_officer' ) ;
#107 = AXIS2_PLACEMENT_3D ( 'NONE', #112, #177, #38 ) ;
#108 = EDGE_CURVE ( 'NONE', #101, #101, #44, .T. ) ;
#109 = AXIS2_PLACEMENT_3D ( 'NONE', #56, #162, #198 ) ;
#110 = APPROVAL_PERSON_ORGANIZATION ( #11, #18, #175 ) ;
#111 = DIRECTION ( 'NONE',  ( -3.664998382197393967E-31, -1.000000000000000000, -1.049697256412017316E-16 ) ) ;
#112 = CARTESIAN_POINT ( 'NONE',  ( 3.737006715588866833E-14, 1.718999999999998751, 10.70321262787297556 ) ) ;
#113 = PLANE ( 'NONE',  #5 ) ;
#114 = DIRECTION ( 'NONE',  ( -3.491481338843133355E-15, 1.049697256412017316E-16, -1.000000000000000000 ) ) ;
#115 = APPROVAL_ROLE ( '' ) ;
#116 = PERSON_AND_ORGANIZATION ( #67, #141 ) ;
#117 = VERTEX_POINT ( 'NONE', #204 ) ;
#118 = APPROVAL ( #79, 'UNSPECIFIED' ) ;
#119 = ORIENTED_EDGE ( 'NONE', *, *, #108, .F. ) ;
#120 = EDGE_LOOP ( 'NONE', ( #157 ) ) ;
#121 = DATE_AND_TIME ( #103, #3 ) ;
#122 = AXIS2_PLACEMENT_3D ( 'NONE', #123, #243, #15 ) ;
#123 = CARTESIAN_POINT ( 'NONE',  ( 0.0000000000000000000, 0.0000000000000000000, 0.0000000000000000000 ) ) ;
#124 = DIRECTION ( 'NONE',  ( -3.491481338843133355E-15, 1.049697256412017316E-16, -1.000000000000000000 ) ) ;
#125 = FACE_BOUND ( 'NONE', #192, .T. ) ;
#126 = EDGE_CURVE ( 'NONE', #153, #153, #207, .T. ) ;
#127 = PLANE ( 'NONE',  #190 ) ;
#128 = DIRECTION ( 'NONE',  ( 0.0000000000000000000, 1.000000000000000000, 0.0000000000000000000 ) ) ;
#129 = EDGE_CURVE ( 'NONE', #205, #205, #70, .T. ) ;
#130 = PERSON_AND_ORGANIZATION ( #67, #141 ) ;
#131 =( NAMED_UNIT ( * ) SI_UNIT ( $, .STERADIAN. ) SOLID_ANGLE_UNIT ( ) );
#132 = ADVANCED_BREP_SHAPE_REPRESENTATION ( '321247', ( #75, #232, #59 ), #221 ) ;
#133 = VERTEX_POINT ( 'NONE', #43 ) ;
#134 = AXIS2_PLACEMENT_3D ( 'NONE', #73, #91, #128 ) ;
#135 = AXIS2_PLACEMENT_3D ( 'NONE', #24, #80, #164 ) ;
#136 = CARTESIAN_POINT ( 'NONE',  ( 3.737006715588866202E-14, 1.718999999999998751, 10.70321262787297378 ) ) ;
#137 = ADVANCED_FACE ( 'NONE', ( #176 ), #127, .T. ) ;
#138 = APPROVAL_DATE_TIME ( #121, #18 ) ;
#139 = CC_DESIGN_APPROVAL ( #18, ( #102 ) ) ;
#140 = APPROVAL_DATE_TIME ( #172, #118 ) ;
#141 = ORGANIZATION ( 'UNSPECIFIED', 'UNSPECIFIED', '' ) ;
#142 = EDGE_LOOP ( 'NONE', ( #212 ) ) ;
#143 = CARTESIAN_POINT ( 'NONE',  ( -1.623056901716866075E-30, 1.574662432702592652, -4.648619723840910542E-16 ) ) ;
#144 = CC_DESIGN_DATE_AND_TIME_ASSIGNMENT ( #195, #50, ( #102 ) ) ;
#145 = FACE_OUTER_BOUND ( 'NONE', #208, .T. ) ;
#146 = LOCAL_TIME ( 14, 1, 47.00000000000000000, #27 ) ;
#147 = CARTESIAN_POINT ( 'NONE',  ( 2.433562493173664138E-13, -7.316389877191761450E-15, 69.70000000000001705 ) ) ;
#148 = FACE_OUTER_BOUND ( 'NONE', #193, .T. ) ;
#149 = CYLINDRICAL_SURFACE ( 'NONE', #238, 1.499999999999995337 ) ;
#150 = LOCAL_TIME ( 14, 1, 47.00000000000000000, #202 ) ;
#151 =( LENGTH_UNIT ( ) NAMED_UNIT ( * ) SI_UNIT ( .MILLI., .METRE. ) );
#152 = AXIS2_PLACEMENT_3D ( 'NONE', #17, #4, #20 ) ;
#153 = VERTEX_POINT ( 'NONE', #226 ) ;
#154 = CONICAL_SURFACE ( 'NONE', #213, 1.499999999999997558, 0.7853981633974573828 ) ;
#155 = ORIENTED_EDGE ( 'NONE', *, *, #35, .T. ) ;
#156 = EDGE_LOOP ( 'NONE', ( #26 ) ) ;
#157 = ORIENTED_EDGE ( 'NONE', *, *, #129, .F. ) ;
#158 = AXIS2_PLACEMENT_3D ( 'NONE', #95, #163, #36 ) ;
#159 = EDGE_CURVE ( 'NONE', #2, #2, #90, .T. ) ;
#160 = CARTESIAN_POINT ( 'NONE',  ( 3.737006715588866833E-14, 5.950996576967836889E-15, 10.70321262787297556 ) ) ;
#161 = FACE_OUTER_BOUND ( 'NONE', #142, .T. ) ;
#162 = DIRECTION ( 'NONE',  ( -3.491481338843133355E-15, -5.560009675478589936E-16, -1.000000000000000000 ) ) ;
#163 = DIRECTION ( 'NONE',  ( -3.491481338843133355E-15, -5.560009675478589936E-16, -1.000000000000000000 ) ) ;
#164 = DIRECTION ( 'NONE',  ( 0.0000000000000000000, 1.000000000000000000, 0.0000000000000000000 ) ) ;
#165 = CALENDAR_DATE ( 2021, 26, 11 ) ;
#166 = APPROVAL ( #100, 'UNSPECIFIED' ) ;
#167 = COORDINATED_UNIVERSAL_TIME_OFFSET ( 1, 0, .AHEAD. ) ;
#168 = AXIS2_PLACEMENT_3D ( 'NONE', #160, #16, #196 ) ;
#169 = APPLICATION_PROTOCOL_DEFINITION ( 'international standard', 'config_control_design', 1994, #86 ) ;
#170 = ORIENTED_EDGE ( 'NONE', *, *, #29, .T. ) ;
#171 = ORIENTED_EDGE ( 'NONE', *, *, #129, .T. ) ;
#172 = DATE_AND_TIME ( #48, #146 ) ;
#173 = ORIENTED_EDGE ( 'NONE', *, *, #159, .F. ) ;
#174 = EDGE_LOOP ( 'NONE', ( #171 ) ) ;
#175 = APPROVAL_ROLE ( '' ) ;
#176 = FACE_OUTER_BOUND ( 'NONE', #194, .T. ) ;
#177 = DIRECTION ( 'NONE',  ( -3.491481338843133355E-15, 1.049697256412017316E-16, -1.000000000000000000 ) ) ;
#178 = CARTESIAN_POINT ( 'NONE',  ( 3.737006715588866202E-14, -1.123513293027271855E-15, 10.70321262787297378 ) ) ;
#179 = DIRECTION ( 'NONE',  ( -1.941267002572076591E-30, 1.000000000000000000, -5.560009675478589936E-16 ) ) ;
#180 = AXIS2_PLACEMENT_3D ( 'NONE', #178, #124, #76 ) ;
#181 = FACE_BOUND ( 'NONE', #237, .T. ) ;
#182 = APPLICATION_PROTOCOL_DEFINITION ( 'international standard', 'config_control_design', 1994, #40 ) ;
#183 = CARTESIAN_POINT ( 'NONE',  ( 2.444036937190193601E-13, 1.199999999999990186, 70.00000000000000000 ) ) ;
#184 = ADVANCED_FACE ( 'NONE', ( #1, #240 ), #149, .T. ) ;
#185 = AXIS2_PLACEMENT_3D ( 'NONE', #74, #197, #55 ) ;
#186 = DIRECTION ( 'NONE',  ( 0.0000000000000000000, 0.0000000000000000000, 1.000000000000000000 ) ) ;
#187 = PERSON_AND_ORGANIZATION ( #67, #141 ) ;
#188 = PRODUCT_DEFINITION_SHAPE ( 'NONE', 'NONE',  #230 ) ;
#189 = APPROVAL_DATE_TIME ( #206, #166 ) ;
#190 = AXIS2_PLACEMENT_3D ( 'NONE', #53, #199, #111 ) ;
#191 = PRODUCT_DEFINITION_FORMATION_WITH_SPECIFIED_SOURCE ( 'ANY', '', #234, .NOT_KNOWN. ) ;
#192 = EDGE_LOOP ( 'NONE', ( #210 ) ) ;
#193 = EDGE_LOOP ( 'NONE', ( #119 ) ) ;
#194 = EDGE_LOOP ( 'NONE', ( #104 ) ) ;
#195 = DATE_AND_TIME ( #229, #239 ) ;
#196 = DIRECTION ( 'NONE',  ( -3.585209902291553079E-30, 1.000000000000000000, -1.009146873750328176E-15 ) ) ;
#197 = DIRECTION ( 'NONE',  ( 3.491481338843133355E-15, 5.560009675478589936E-16, 1.000000000000000000 ) ) ;
#198 = DIRECTION ( 'NONE',  ( -1.904642760592381552E-30, 1.000000000000000000, -5.676451164845577873E-16 ) ) ;
#199 = DIRECTION ( 'NONE',  ( 3.491481338843133355E-15, -1.049697256412017316E-16, 1.000000000000000000 ) ) ;
#200 = DIRECTION ( 'NONE',  ( -3.491481338843133355E-15, 1.049697256412017316E-16, -1.000000000000000000 ) ) ;
#201 = CC_DESIGN_APPROVAL ( #118, ( #191 ) ) ;
#202 = COORDINATED_UNIVERSAL_TIME_OFFSET ( 1, 0, .AHEAD. ) ;
#203 = PRODUCT_RELATED_PRODUCT_CATEGORY ( 'detail', '', ( #234 ) ) ;
#204 = CARTESIAN_POINT ( 'NONE',  ( 2.433562493173664138E-13, 1.499999999999990230, 69.70000000000001705 ) ) ;
#205 = VERTEX_POINT ( 'NONE', #223 ) ;
#206 = DATE_AND_TIME ( #228, #31 ) ;
#207 = CIRCLE ( 'NONE', #168, 1.718999999999992978 ) ;
#208 = EDGE_LOOP ( 'NONE', ( #12 ) ) ;
#209 = ADVANCED_FACE ( 'NONE', ( #94 ), #33, .T. ) ;
#210 = ORIENTED_EDGE ( 'NONE', *, *, #236, .T. ) ;
#211 = APPROVAL_STATUS ( 'not_yet_approved' ) ;
#212 = ORIENTED_EDGE ( 'NONE', *, *, #159, .T. ) ;
#213 = AXIS2_PLACEMENT_3D ( 'NONE', #147, #219, #93 ) ;
#214 = ORIENTED_EDGE ( 'NONE', *, *, #126, .F. ) ;
#215 = DIRECTION ( 'NONE',  ( -3.491481338843133355E-15, -5.560009675478589936E-16, -1.000000000000000000 ) ) ;
#216 = UNCERTAINTY_MEASURE_WITH_UNIT (LENGTH_MEASURE( 1.000000000000000082E-05 ), #151, 'distance_accuracy_value', 'NONE');
#217 = APPROVAL_PERSON_ORGANIZATION ( #23, #166, #115 ) ;
#218 = DIRECTION ( 'NONE',  ( 0.0000000000000000000, 1.000000000000000000, 0.0000000000000000000 ) ) ;
#219 = DIRECTION ( 'NONE',  ( -3.491481338843133355E-15, 1.049697256412017316E-16, -1.000000000000000000 ) ) ;
#220 = PERSON_AND_ORGANIZATION_ROLE ( 'design_owner' ) ;
#221 =( GEOMETRIC_REPRESENTATION_CONTEXT ( 3 ) GLOBAL_UNCERTAINTY_ASSIGNED_CONTEXT ( ( #216 ) ) GLOBAL_UNIT_ASSIGNED_CONTEXT ( ( #151, #22, #131 ) ) REPRESENTATION_CONTEXT ( 'NONE', 'WORKASPACE' ) );
#222 = ADVANCED_FACE ( 'NONE', ( #14 ), #113, .T. ) ;
#223 = CARTESIAN_POINT ( 'NONE',  ( -1.892735826383158072E-31, 1.574662432702592652, -5.421010862427522170E-17 ) ) ;
#224 = APPROVAL_ROLE ( '' ) ;
#225 = ADVANCED_FACE ( 'NONE', ( #92 ), #241, .T. ) ;
#226 = CARTESIAN_POINT ( 'NONE',  ( 3.737006715588866202E-14, 1.718999999999998751, 10.70321262787297378 ) ) ;
#227 = AXIS2_PLACEMENT_3D ( 'NONE', #39, #114, #19 ) ;
#228 = CALENDAR_DATE ( 2021, 26, 11 ) ;
#229 = CALENDAR_DATE ( 2021, 26, 11 ) ;
#230 = PRODUCT_DEFINITION ( 'UNKNOWN', '', #191, #32 ) ;
#231 = ORIENTED_EDGE ( 'NONE', *, *, #108, .T. ) ;
#232 = MANIFOLD_SOLID_BREP ( 'Corps-Déplacer/Copier1[2]', #21 ) ;
#233 = COORDINATED_UNIVERSAL_TIME_OFFSET ( 1, 0, .AHEAD. ) ;
#234 = PRODUCT ( '321247', '321247', '', ( #98 ) ) ;
#235 = SHAPE_DEFINITION_REPRESENTATION ( #188, #132 ) ;
#236 = EDGE_CURVE ( 'NONE', #133, #133, #71, .T. ) ;
#237 = EDGE_LOOP ( 'NONE', ( #155 ) ) ;
#238 = AXIS2_PLACEMENT_3D ( 'NONE', #77, #37, #72 ) ;
#239 = LOCAL_TIME ( 14, 1, 47.00000000000000000, #25 ) ;
#240 = FACE_OUTER_BOUND ( 'NONE', #156, .T. ) ;
#241 = PLANE ( 'NONE',  #152 ) ;
#242 = FACE_BOUND ( 'NONE', #120, .T. ) ;
#243 = DIRECTION ( 'NONE',  ( -3.491481338843133355E-15, -5.560009675478589936E-16, -1.000000000000000000 ) ) ;
ENDSEC;
END-ISO-10303-21;
