ISO-10303-21;
HEADER;
FILE_DESCRIPTION (( 'STEP AP203' ),
    '1' );
FILE_NAME ('321246.step',
    '2021-11-26T13:01:46',
    ( '' ),
    ( '' ),
    'SwSTEP 2.0',
    'SolidWorks 2019',
    '' );
FILE_SCHEMA (( 'CONFIG_CONTROL_DESIGN' ));
ENDSEC;

DATA;
#1 = CALENDAR_DATE ( 2021, 26, 11 ) ;
#2 = AXIS2_PLACEMENT_3D ( 'NONE', #87, #84, #231 ) ;
#3 = DIRECTION ( 'NONE',  ( 3.491481338843133355E-15, 5.553534374494189427E-16, 1.000000000000000000 ) ) ;
#4 = CARTESIAN_POINT ( 'NONE',  ( 3.740030427125144337E-14, 1.713999999999998636, 10.71187288191081954 ) ) ;
#5 = DIRECTION ( 'NONE',  ( -3.491481338843133355E-15, -5.553534374494189427E-16, -1.000000000000000000 ) ) ;
#6 = FACE_OUTER_BOUND ( 'NONE', #216, .T. ) ;
#7 = ORIENTED_EDGE ( 'NONE', *, *, #192, .T. ) ;
#8 = PRODUCT_DEFINITION_SHAPE ( 'NONE', 'NONE',  #173 ) ;
#9 = VERTEX_POINT ( 'NONE', #145 ) ;
#10 = CIRCLE ( 'NONE', #149, 1.499999999999997558 ) ;
#11 = EDGE_CURVE ( 'NONE', #9, #9, #82, .T. ) ;
#12 = CARTESIAN_POINT ( 'NONE',  ( 3.740030427125144337E-14, 1.713999999999998636, 10.71187288191081954 ) ) ;
#13 = VERTEX_POINT ( 'NONE', #236 ) ;
#14 = CIRCLE ( 'NONE', #2, 1.569662432702592536 ) ;
#15 = PERSON_AND_ORGANIZATION ( #232, #128 ) ;
#16 = APPROVAL ( #37, 'UNSPECIFIED' ) ;
#17 = SECURITY_CLASSIFICATION_LEVEL ( 'unclassified' ) ;
#18 = APPLICATION_CONTEXT ( 'configuration controlled 3d designs of mechanical parts and assemblies' ) ;
#19 = CLOSED_SHELL ( 'NONE', ( #109, #118, #104, #238 ) ) ;
#20 = AXIS2_PLACEMENT_3D ( 'NONE', #30, #233, #234 ) ;
#21 = FACE_OUTER_BOUND ( 'NONE', #129, .T. ) ;
#22 = EDGE_CURVE ( 'NONE', #141, #141, #207, .T. ) ;
#23 = DIRECTION ( 'NONE',  ( 0.0000000000000000000, 1.000000000000000000, 0.0000000000000000000 ) ) ;
#24 = EDGE_LOOP ( 'NONE', ( #205 ) ) ;
#25 = PLANE ( 'NONE',  #107 ) ;
#26 = APPROVAL_PERSON_ORGANIZATION ( #148, #174, #52 ) ;
#27 = DIRECTION ( 'NONE',  ( 3.491481338843133355E-15, -1.049697256412017316E-16, 1.000000000000000000 ) ) ;
#28 = LOCAL_TIME ( 14, 1, 46.00000000000000000, #220 ) ;
#29 = UNCERTAINTY_MEASURE_WITH_UNIT (LENGTH_MEASURE( 1.000000000000000082E-05 ), #146, 'distance_accuracy_value', 'NONE');
#30 = CARTESIAN_POINT ( 'NONE',  ( -1.616429356987926188E-30, 1.569662432702592536, -4.629637681304386487E-16 ) ) ;
#31 = DIRECTION ( 'NONE',  ( 0.0000000000000000000, 1.000000000000000000, 0.0000000000000000000 ) ) ;
#32 = APPLICATION_CONTEXT ( 'configuration controlled 3d designs of mechanical parts and assemblies' ) ;
#33 = PERSON_AND_ORGANIZATION ( #232, #128 ) ;
#34 = CALENDAR_DATE ( 2021, 26, 11 ) ;
#35 = PERSON_AND_ORGANIZATION ( #232, #128 ) ;
#36 = EDGE_LOOP ( 'NONE', ( #99 ) ) ;
#37 = APPROVAL_STATUS ( 'not_yet_approved' ) ;
#38 = PLANE ( 'NONE',  #153 ) ;
#39 = CIRCLE ( 'NONE', #94, 1.713999999999999746 ) ;
#40 = SECURITY_CLASSIFICATION ( '', '', #17 ) ;
#41 = FACE_OUTER_BOUND ( 'NONE', #44, .T. ) ;
#42 = EDGE_LOOP ( 'NONE', ( #155 ) ) ;
#43 = EDGE_CURVE ( 'NONE', #120, #120, #162, .T. ) ;
#44 = EDGE_LOOP ( 'NONE', ( #176 ) ) ;
#45 = DIRECTION ( 'NONE',  ( 3.491481338843133355E-15, 5.553534374494189427E-16, 1.000000000000000000 ) ) ;
#46 = CC_DESIGN_DATE_AND_TIME_ASSIGNMENT ( #57, #179, ( #173 ) ) ;
#47 = VERTEX_POINT ( 'NONE', #105 ) ;
#48 = DIRECTION ( 'NONE',  ( 1.000000000000000000, 0.0000000000000000000, 0.0000000000000000000 ) ) ;
#49 = AXIS2_PLACEMENT_3D ( 'NONE', #96, #223, #133 ) ;
#50 = AXIS2_PLACEMENT_3D ( 'NONE', #121, #193, #31 ) ;
#51 = PLANE ( 'NONE',  #20 ) ;
#52 = APPROVAL_ROLE ( '' ) ;
#53 = COORDINATED_UNIVERSAL_TIME_OFFSET ( 1, 0, .AHEAD. ) ;
#54 = ORIENTED_EDGE ( 'NONE', *, *, #11, .F. ) ;
#55 = CC_DESIGN_PERSON_AND_ORGANIZATION_ASSIGNMENT ( #215, #194, ( #75 ) ) ;
#56 = COORDINATED_UNIVERSAL_TIME_OFFSET ( 1, 0, .AHEAD. ) ;
#57 = DATE_AND_TIME ( #110, #28 ) ;
#58 = ADVANCED_FACE ( 'NONE', ( #183, #116 ), #168, .T. ) ;
#59 = CYLINDRICAL_SURFACE ( 'NONE', #166, 1.713999999999995749 ) ;
#60 = EDGE_LOOP ( 'NONE', ( #54 ) ) ;
#61 = AXIS2_PLACEMENT_3D ( 'NONE', #138, #62, #93 ) ;
#62 = DIRECTION ( 'NONE',  ( -3.491481338843133355E-15, 1.049697256412017316E-16, -1.000000000000000000 ) ) ;
#63 = DIRECTION ( 'NONE',  ( 0.0000000000000000000, 1.000000000000000000, 0.0000000000000000000 ) ) ;
#64 = EDGE_LOOP ( 'NONE', ( #152 ) ) ;
#65 = CARTESIAN_POINT ( 'NONE',  ( 2.444036937190193601E-13, -7.347880794884121511E-15, 70.00000000000000000 ) ) ;
#66 = DIRECTION ( 'NONE',  ( -3.491481338843133355E-15, 1.049697256412017316E-16, -1.000000000000000000 ) ) ;
#67 = MANIFOLD_SOLID_BREP ( 'Corps-Déplacer/Copier1[2]', #19 ) ;
#68 = CC_DESIGN_DATE_AND_TIME_ASSIGNMENT ( #178, #72, ( #40 ) ) ;
#69 = LOCAL_TIME ( 14, 1, 46.00000000000000000, #53 ) ;
#70 = APPROVAL_DATE_TIME ( #163, #16 ) ;
#71 = CONICAL_SURFACE ( 'NONE', #124, 1.713999999999999746, 0.5235987755982933756 ) ;
#72 = DATE_TIME_ROLE ( 'classification_date' ) ;
#73 = EDGE_LOOP ( 'NONE', ( #137 ) ) ;
#74 = PERSON_AND_ORGANIZATION_ROLE ( 'creator' ) ;
#75 = PRODUCT_DEFINITION_FORMATION_WITH_SPECIFIED_SOURCE ( 'ANY', '', #190, .NOT_KNOWN. ) ;
#76 = CARTESIAN_POINT ( 'NONE',  ( 0.0000000000000000000, 0.0000000000000000000, 0.0000000000000000000 ) ) ;
#77 = DIRECTION ( 'NONE',  ( -3.491481338843133355E-15, 1.049697256412017316E-16, -1.000000000000000000 ) ) ;
#78 = ORIENTED_EDGE ( 'NONE', *, *, #192, .F. ) ;
#79 = CARTESIAN_POINT ( 'NONE',  ( 3.740030427125144337E-14, -1.124422357517607579E-15, 10.71187288191081954 ) ) ;
#80 = DIRECTION ( 'NONE',  ( -3.491481338843133355E-15, 1.049697256412017316E-16, -1.000000000000000000 ) ) ;
#81 = FACE_BOUND ( 'NONE', #73, .T. ) ;
#82 = CIRCLE ( 'NONE', #144, 1.499999999999992673 ) ;
#83 = APPROVAL_PERSON_ORGANIZATION ( #197, #16, #219 ) ;
#84 = DIRECTION ( 'NONE',  ( -3.491481338843133355E-15, -5.553534374494189427E-16, -1.000000000000000000 ) ) ;
#85 = DIRECTION ( 'NONE',  ( 0.0000000000000000000, 0.0000000000000000000, 1.000000000000000000 ) ) ;
#86 = PERSON_AND_ORGANIZATION ( #232, #128 ) ;
#87 = CARTESIAN_POINT ( 'NONE',  ( 2.854311548699219447E-30, 4.540054997535543966E-31, 8.175073190123268540E-16 ) ) ;
#88 = CC_DESIGN_PERSON_AND_ORGANIZATION_ASSIGNMENT ( #35, #89, ( #173 ) ) ;
#89 = PERSON_AND_ORGANIZATION_ROLE ( 'creator' ) ;
#90 = EDGE_LOOP ( 'NONE', ( #243 ) ) ;
#91 = EDGE_CURVE ( 'NONE', #47, #47, #10, .T. ) ;
#92 = APPROVAL_DATE_TIME ( #127, #134 ) ;
#93 = DIRECTION ( 'NONE',  ( 0.0000000000000000000, 1.000000000000000000, 0.0000000000000000000 ) ) ;
#94 = AXIS2_PLACEMENT_3D ( 'NONE', #79, #154, #150 ) ;
#95 =( GEOMETRIC_REPRESENTATION_CONTEXT ( 3 ) GLOBAL_UNCERTAINTY_ASSIGNED_CONTEXT ( ( #29 ) ) GLOBAL_UNIT_ASSIGNED_CONTEXT ( ( #146, #214, #188 ) ) REPRESENTATION_CONTEXT ( 'NONE', 'WORKASPACE' ) );
#96 = CARTESIAN_POINT ( 'NONE',  ( 8.728703347107866915E-16, 1.388383593623552534E-16, 0.2500000000000009437 ) ) ;
#97 = EDGE_LOOP ( 'NONE', ( #228 ) ) ;
#98 = DIRECTION ( 'NONE',  ( -3.491481338843133355E-15, -5.553534374494189427E-16, -1.000000000000000000 ) ) ;
#99 = ORIENTED_EDGE ( 'NONE', *, *, #91, .F. ) ;
#100 = ADVANCED_BREP_SHAPE_REPRESENTATION ( '321246', ( #230, #67, #136 ), #95 ) ;
#101 = AXIS2_PLACEMENT_3D ( 'NONE', #206, #165, #182 ) ;
#102 = CC_DESIGN_APPROVAL ( #174, ( #40 ) ) ;
#103 = CARTESIAN_POINT ( 'NONE',  ( 3.740030427125144337E-14, 1.713999999999998636, 10.71187288191081954 ) ) ;
#104 = ADVANCED_FACE ( 'NONE', ( #21, #225 ), #239, .T. ) ;
#105 = CARTESIAN_POINT ( 'NONE',  ( 2.433562493173664138E-13, 1.499999999999990230, 69.70000000000001705 ) ) ;
#106 = CARTESIAN_POINT ( 'NONE',  ( 8.728703347107833388E-16, 1.713999999999998636, 0.2499999999999999445 ) ) ;
#107 = AXIS2_PLACEMENT_3D ( 'NONE', #171, #45, #202 ) ;
#108 = DESIGN_CONTEXT ( 'detailed design', #32, 'design' ) ;
#109 = ADVANCED_FACE ( 'NONE', ( #167 ), #25, .T. ) ;
#110 = CALENDAR_DATE ( 2021, 26, 11 ) ;
#111 = CALENDAR_DATE ( 2021, 26, 11 ) ;
#112 = LOCAL_TIME ( 14, 1, 46.00000000000000000, #131 ) ;
#113 = PERSON_AND_ORGANIZATION ( #232, #128 ) ;
#114 = CARTESIAN_POINT ( 'NONE',  ( 2.433562493173664138E-13, -7.316389877191761450E-15, 69.70000000000001705 ) ) ;
#115 = FACE_BOUND ( 'NONE', #24, .T. ) ;
#116 = FACE_OUTER_BOUND ( 'NONE', #60, .T. ) ;
#117 = CARTESIAN_POINT ( 'NONE',  ( 3.740030427125144968E-14, 5.948875426490388378E-15, 10.71187288191082132 ) ) ;
#118 = ADVANCED_FACE ( 'NONE', ( #6, #41 ), #59, .T. ) ;
#119 = CLOSED_SHELL ( 'NONE', ( #222, #229, #58, #189, #185 ) ) ;
#120 = VERTEX_POINT ( 'NONE', #175 ) ;
#121 = CARTESIAN_POINT ( 'NONE',  ( 2.433562493173664138E-13, -7.316389877191761450E-15, 69.70000000000001705 ) ) ;
#122 = CARTESIAN_POINT ( 'NONE',  ( 0.0000000000000000000, 0.0000000000000000000, 0.0000000000000000000 ) ) ;
#123 = CC_DESIGN_PERSON_AND_ORGANIZATION_ASSIGNMENT ( #15, #242, ( #40 ) ) ;
#124 = AXIS2_PLACEMENT_3D ( 'NONE', #209, #66, #142 ) ;
#125 = VERTEX_POINT ( 'NONE', #106 ) ;
#126 = APPROVAL_DATE_TIME ( #241, #174 ) ;
#127 = DATE_AND_TIME ( #34, #112 ) ;
#128 = ORGANIZATION ( 'UNSPECIFIED', 'UNSPECIFIED', '' ) ;
#129 = EDGE_LOOP ( 'NONE', ( #139 ) ) ;
#130 = APPLICATION_PROTOCOL_DEFINITION ( 'international standard', 'config_control_design', 1994, #32 ) ;
#131 = COORDINATED_UNIVERSAL_TIME_OFFSET ( 1, 0, .AHEAD. ) ;
#132 = LOCAL_TIME ( 14, 1, 46.00000000000000000, #164 ) ;
#133 = DIRECTION ( 'NONE',  ( -1.910198894666455145E-30, 1.000000000000000000, -5.693010240589001954E-16 ) ) ;
#134 = APPROVAL ( #196, 'UNSPECIFIED' ) ;
#135 = DIRECTION ( 'NONE',  ( -3.491481338843133355E-15, 1.049697256412017316E-16, -1.000000000000000000 ) ) ;
#136 = AXIS2_PLACEMENT_3D ( 'NONE', #122, #85, #48 ) ;
#137 = ORIENTED_EDGE ( 'NONE', *, *, #43, .T. ) ;
#138 = CARTESIAN_POINT ( 'NONE',  ( 2.444036937190193601E-13, -7.347880794884121511E-15, 70.00000000000000000 ) ) ;
#139 = ORIENTED_EDGE ( 'NONE', *, *, #177, .T. ) ;
#140 = AXIS2_PLACEMENT_3D ( 'NONE', #204, #3, #186 ) ;
#141 = VERTEX_POINT ( 'NONE', #12 ) ;
#142 = DIRECTION ( 'NONE',  ( 0.0000000000000000000, 1.000000000000000000, 0.0000000000000000000 ) ) ;
#143 = APPLICATION_PROTOCOL_DEFINITION ( 'international standard', 'config_control_design', 1994, #18 ) ;
#144 = AXIS2_PLACEMENT_3D ( 'NONE', #227, #135, #23 ) ;
#145 = CARTESIAN_POINT ( 'NONE',  ( 3.869445280877825183E-14, 1.499999999999991562, 11.08253175473057617 ) ) ;
#146 =( LENGTH_UNIT ( ) NAMED_UNIT ( * ) SI_UNIT ( .MILLI., .METRE. ) );
#147 = APPROVAL_STATUS ( 'not_yet_approved' ) ;
#148 = PERSON_AND_ORGANIZATION ( #232, #128 ) ;
#149 = AXIS2_PLACEMENT_3D ( 'NONE', #114, #80, #63 ) ;
#150 = DIRECTION ( 'NONE',  ( 0.0000000000000000000, 1.000000000000000000, 0.0000000000000000000 ) ) ;
#151 = DIRECTION ( 'NONE',  ( -3.595668507607456189E-30, 1.000000000000000000, -1.012090709438047947E-15 ) ) ;
#152 = ORIENTED_EDGE ( 'NONE', *, *, #22, .F. ) ;
#153 = AXIS2_PLACEMENT_3D ( 'NONE', #4, #77, #224 ) ;
#154 = DIRECTION ( 'NONE',  ( -3.491481338843133355E-15, 1.049697256412017316E-16, -1.000000000000000000 ) ) ;
#155 = ORIENTED_EDGE ( 'NONE', *, *, #91, .T. ) ;
#156 = PERSON_AND_ORGANIZATION_ROLE ( 'design_owner' ) ;
#157 = CC_DESIGN_APPROVAL ( #134, ( #173 ) ) ;
#158 = DIRECTION ( 'NONE',  ( -3.664998382197393967E-31, -1.000000000000000000, -1.049697256412017316E-16 ) ) ;
#159 = FACE_OUTER_BOUND ( 'NONE', #184, .T. ) ;
#160 = FACE_OUTER_BOUND ( 'NONE', #221, .T. ) ;
#161 = APPROVAL_ROLE ( '' ) ;
#162 = CIRCLE ( 'NONE', #61, 1.199999999999997513 ) ;
#163 = DATE_AND_TIME ( #1, #132 ) ;
#164 = COORDINATED_UNIVERSAL_TIME_OFFSET ( 1, 0, .AHEAD. ) ;
#165 = DIRECTION ( 'NONE',  ( -3.491481338843133355E-15, 1.049697256412017316E-16, -1.000000000000000000 ) ) ;
#166 = AXIS2_PLACEMENT_3D ( 'NONE', #76, #5, #187 ) ;
#167 = FACE_OUTER_BOUND ( 'NONE', #64, .T. ) ;
#168 = CYLINDRICAL_SURFACE ( 'NONE', #101, 1.499999999999995337 ) ;
#169 = EDGE_CURVE ( 'NONE', #191, #191, #39, .T. ) ;
#170 = EDGE_LOOP ( 'NONE', ( #78 ) ) ;
#171 = CARTESIAN_POINT ( 'NONE',  ( 3.740030427125144337E-14, 5.948875426490387589E-15, 10.71187288191081954 ) ) ;
#172 = PLANE ( 'NONE',  #235 ) ;
#173 = PRODUCT_DEFINITION ( 'UNKNOWN', '', #75, #108 ) ;
#174 = APPROVAL ( #147, 'UNSPECIFIED' ) ;
#175 = CARTESIAN_POINT ( 'NONE',  ( 2.444036937190193601E-13, 1.199999999999990186, 70.00000000000000000 ) ) ;
#176 = ORIENTED_EDGE ( 'NONE', *, *, #177, .F. ) ;
#177 = EDGE_CURVE ( 'NONE', #125, #125, #180, .T. ) ;
#178 = DATE_AND_TIME ( #181, #69 ) ;
#179 = DATE_TIME_ROLE ( 'creation_date' ) ;
#180 = CIRCLE ( 'NONE', #49, 1.713999999999998414 ) ;
#181 = CALENDAR_DATE ( 2021, 26, 11 ) ;
#182 = DIRECTION ( 'NONE',  ( 3.664998382197393967E-31, 1.000000000000000000, 1.049697256412017316E-16 ) ) ;
#183 = FACE_OUTER_BOUND ( 'NONE', #42, .T. ) ;
#184 = EDGE_LOOP ( 'NONE', ( #195 ) ) ;
#185 = ADVANCED_FACE ( 'NONE', ( #200 ), #38, .T. ) ;
#186 = DIRECTION ( 'NONE',  ( 1.939006163317033719E-30, -1.000000000000000000, 5.553534374494190413E-16 ) ) ;
#187 = DIRECTION ( 'NONE',  ( -1.939006163317033369E-30, 1.000000000000000000, -5.553534374494188441E-16 ) ) ;
#188 =( NAMED_UNIT ( * ) SI_UNIT ( $, .STERADIAN. ) SOLID_ANGLE_UNIT ( ) );
#189 = ADVANCED_FACE ( 'NONE', ( #115, #159 ), #71, .T. ) ;
#190 = PRODUCT ( '321246', '321246', '', ( #211 ) ) ;
#191 = VERTEX_POINT ( 'NONE', #103 ) ;
#192 = EDGE_CURVE ( 'NONE', #13, #13, #14, .T. ) ;
#193 = DIRECTION ( 'NONE',  ( -3.491481338843133355E-15, 1.049697256412017316E-16, -1.000000000000000000 ) ) ;
#194 = PERSON_AND_ORGANIZATION_ROLE ( 'design_supplier' ) ;
#195 = ORIENTED_EDGE ( 'NONE', *, *, #169, .F. ) ;
#196 = APPROVAL_STATUS ( 'not_yet_approved' ) ;
#197 = PERSON_AND_ORGANIZATION ( #232, #128 ) ;
#198 = CC_DESIGN_APPROVAL ( #16, ( #75 ) ) ;
#199 = ORIENTED_EDGE ( 'NONE', *, *, #22, .T. ) ;
#200 = FACE_OUTER_BOUND ( 'NONE', #97, .T. ) ;
#201 = PRODUCT_RELATED_PRODUCT_CATEGORY ( 'detail', '', ( #190 ) ) ;
#202 = DIRECTION ( 'NONE',  ( 1.939006163317033719E-30, -1.000000000000000000, 5.553534374494189427E-16 ) ) ;
#203 = LOCAL_TIME ( 14, 1, 46.00000000000000000, #56 ) ;
#204 = CARTESIAN_POINT ( 'NONE',  ( 2.854311548699219447E-30, 4.540054997535543966E-31, 8.175073190123268540E-16 ) ) ;
#205 = ORIENTED_EDGE ( 'NONE', *, *, #11, .T. ) ;
#206 = CARTESIAN_POINT ( 'NONE',  ( 0.0000000000000000000, 0.0000000000000000000, 0.0000000000000000000 ) ) ;
#207 = CIRCLE ( 'NONE', #217, 1.713999999999992863 ) ;
#208 = APPROVAL_PERSON_ORGANIZATION ( #33, #134, #161 ) ;
#209 = CARTESIAN_POINT ( 'NONE',  ( 3.740030427125144337E-14, -1.124422357517607579E-15, 10.71187288191081954 ) ) ;
#210 = FACE_OUTER_BOUND ( 'NONE', #90, .T. ) ;
#211 = MECHANICAL_CONTEXT ( 'NONE', #18, 'mechanical' ) ;
#212 = CC_DESIGN_PERSON_AND_ORGANIZATION_ASSIGNMENT ( #113, #74, ( #75 ) ) ;
#213 = FACE_OUTER_BOUND ( 'NONE', #36, .T. ) ;
#214 =( NAMED_UNIT ( * ) PLANE_ANGLE_UNIT ( ) SI_UNIT ( $, .RADIAN. ) );
#215 = PERSON_AND_ORGANIZATION ( #232, #128 ) ;
#216 = EDGE_LOOP ( 'NONE', ( #199 ) ) ;
#217 = AXIS2_PLACEMENT_3D ( 'NONE', #117, #98, #151 ) ;
#218 = CC_DESIGN_PERSON_AND_ORGANIZATION_ASSIGNMENT ( #86, #156, ( #190 ) ) ;
#219 = APPROVAL_ROLE ( '' ) ;
#220 = COORDINATED_UNIVERSAL_TIME_OFFSET ( 1, 0, .AHEAD. ) ;
#221 = EDGE_LOOP ( 'NONE', ( #7 ) ) ;
#222 = ADVANCED_FACE ( 'NONE', ( #210 ), #172, .T. ) ;
#223 = DIRECTION ( 'NONE',  ( -3.491481338843133355E-15, -5.553534374494189427E-16, -1.000000000000000000 ) ) ;
#224 = DIRECTION ( 'NONE',  ( 3.664998382197393967E-31, 1.000000000000000000, 1.049697256412017316E-16 ) ) ;
#225 = FACE_BOUND ( 'NONE', #170, .T. ) ;
#226 = CC_DESIGN_SECURITY_CLASSIFICATION ( #40, ( #75 ) ) ;
#227 = CARTESIAN_POINT ( 'NONE',  ( 3.869445280877825183E-14, -1.163330317703974635E-15, 11.08253175473057617 ) ) ;
#228 = ORIENTED_EDGE ( 'NONE', *, *, #169, .T. ) ;
#229 = ADVANCED_FACE ( 'NONE', ( #81, #213 ), #240, .T. ) ;
#230 = MANIFOLD_SOLID_BREP ( 'Corps-Déplacer/Copier1[1]', #119 ) ;
#231 = DIRECTION ( 'NONE',  ( -1.939006163317033719E-30, 1.000000000000000000, -5.553534374494190413E-16 ) ) ;
#232 = PERSON ( 'UNSPECIFIED', 'UNSPECIFIED', 'UNSPECIFIED', ('UNSPECIFIED'), ('UNSPECIFIED'), ('UNSPECIFIED') ) ;
#233 = DIRECTION ( 'NONE',  ( -3.491481338843133355E-15, -5.553534374494189427E-16, -1.000000000000000000 ) ) ;
#234 = DIRECTION ( 'NONE',  ( -1.939006163317033719E-30, 1.000000000000000000, -5.553534374494189427E-16 ) ) ;
#235 = AXIS2_PLACEMENT_3D ( 'NONE', #65, #27, #158 ) ;
#236 = CARTESIAN_POINT ( 'NONE',  ( -1.892735826383161356E-31, 1.569662432702592536, -5.421010862427522170E-17 ) ) ;
#237 = SHAPE_DEFINITION_REPRESENTATION ( #8, #100 ) ;
#238 = ADVANCED_FACE ( 'NONE', ( #160 ), #51, .T. ) ;
#239 = CONICAL_SURFACE ( 'NONE', #140, 1.569662432702592536, 0.5235987755982970393 ) ;
#240 = CONICAL_SURFACE ( 'NONE', #50, 1.499999999999997558, 0.7853981633974573828 ) ;
#241 = DATE_AND_TIME ( #111, #203 ) ;
#242 = PERSON_AND_ORGANIZATION_ROLE ( 'classification_officer' ) ;
#243 = ORIENTED_EDGE ( 'NONE', *, *, #43, .F. ) ;
ENDSEC;
END-ISO-10303-21;
