ISO-10303-21;
HEADER;
FILE_DESCRIPTION (( 'STEP AP203' ),
    '1' );
FILE_NAME ('321245.step',
    '2021-11-26T13:01:45',
    ( '' ),
    ( '' ),
    'SwSTEP 2.0',
    'SolidWorks 2019',
    '' );
FILE_SCHEMA (( 'CONFIG_CONTROL_DESIGN' ));
ENDSEC;

DATA;
#1 = PLANE ( 'NONE',  #71 ) ;
#2 = APPLICATION_CONTEXT ( 'configuration controlled 3d designs of mechanical parts and assemblies' ) ;
#3 = LOCAL_TIME ( 14, 1, 45.00000000000000000, #128 ) ;
#4 = DATE_AND_TIME ( #96, #192 ) ;
#5 = EDGE_CURVE ( 'NONE', #91, #91, #26, .T. ) ;
#6 = CIRCLE ( 'NONE', #176, 1.499999999999997558 ) ;
#7 = DATE_AND_TIME ( #171, #134 ) ;
#8 = APPROVAL_STATUS ( 'not_yet_approved' ) ;
#9 = CC_DESIGN_DATE_AND_TIME_ASSIGNMENT ( #7, #44, ( #116 ) ) ;
#10 = AXIS2_PLACEMENT_3D ( 'NONE', #103, #15, #141 ) ;
#11 = APPROVAL_PERSON_ORGANIZATION ( #207, #196, #170 ) ;
#12 = DIRECTION ( 'NONE',  ( -1.936748976761354905E-30, 1.000000000000000000, -5.547069535256564892E-16 ) ) ;
#13 = ORIENTED_EDGE ( 'NONE', *, *, #5, .T. ) ;
#14 = DESIGN_CONTEXT ( 'detailed design', #162, 'design' ) ;
#15 = DIRECTION ( 'NONE',  ( -3.491481338843133355E-15, 1.049697256412017316E-16, -1.000000000000000000 ) ) ;
#16 = ORIENTED_EDGE ( 'NONE', *, *, #202, .T. ) ;
#17 = DIRECTION ( 'NONE',  ( -1.936748976761354905E-30, 1.000000000000000000, -5.547069535256564892E-16 ) ) ;
#18 = DIRECTION ( 'NONE',  ( 3.491481338843133355E-15, -1.049697256412017316E-16, 1.000000000000000000 ) ) ;
#19 = CC_DESIGN_DATE_AND_TIME_ASSIGNMENT ( #59, #231, ( #132 ) ) ;
#20 = DIRECTION ( 'NONE',  ( -3.491481338843133355E-15, -5.547069535256564892E-16, -1.000000000000000000 ) ) ;
#21 = FACE_OUTER_BOUND ( 'NONE', #119, .T. ) ;
#22 = AXIS2_PLACEMENT_3D ( 'NONE', #240, #120, #84 ) ;
#23 = CC_DESIGN_APPROVAL ( #113, ( #116 ) ) ;
#24 = APPROVAL_STATUS ( 'not_yet_approved' ) ;
#25 = PERSON_AND_ORGANIZATION_ROLE ( 'creator' ) ;
#26 = CIRCLE ( 'NONE', #158, 1.199999999999997513 ) ;
#27 = APPROVAL_ROLE ( '' ) ;
#28 = FACE_OUTER_BOUND ( 'NONE', #159, .T. ) ;
#29 = PLANE ( 'NONE',  #221 ) ;
#30 = FACE_OUTER_BOUND ( 'NONE', #47, .T. ) ;
#31 = PRODUCT_DEFINITION_SHAPE ( 'NONE', 'NONE',  #132 ) ;
#32 = EDGE_LOOP ( 'NONE', ( #136 ) ) ;
#33 = ORIENTED_EDGE ( 'NONE', *, *, #102, .F. ) ;
#34 = APPROVAL_PERSON_ORGANIZATION ( #63, #113, #114 ) ;
#35 = CARTESIAN_POINT ( 'NONE',  ( 2.841084782875362411E-30, 4.513756001167902467E-31, 8.137190227162224508E-16 ) ) ;
#36 =( NAMED_UNIT ( * ) PLANE_ANGLE_UNIT ( ) SI_UNIT ( $, .RADIAN. ) );
#37 = DIRECTION ( 'NONE',  ( -3.491481338843133355E-15, 1.049697256412017316E-16, -1.000000000000000000 ) ) ;
#38 = AXIS2_PLACEMENT_3D ( 'NONE', #228, #204, #148 ) ;
#39 = PLANE ( 'NONE',  #182 ) ;
#40 = COORDINATED_UNIVERSAL_TIME_OFFSET ( 1, 0, .AHEAD. ) ;
#41 = CIRCLE ( 'NONE', #175, 1.708999999999992969 ) ;
#42 = PERSON_AND_ORGANIZATION ( #222, #111 ) ;
#43 = PERSON_AND_ORGANIZATION ( #222, #111 ) ;
#44 = DATE_TIME_ROLE ( 'classification_date' ) ;
#45 = EDGE_LOOP ( 'NONE', ( #87 ) ) ;
#46 = ADVANCED_FACE ( 'NONE', ( #68, #28 ), #200, .T. ) ;
#47 = EDGE_LOOP ( 'NONE', ( #193 ) ) ;
#48 = CARTESIAN_POINT ( 'NONE',  ( 2.444036937190193601E-13, -7.347880794884121511E-15, 70.00000000000000000 ) ) ;
#49 = EDGE_LOOP ( 'NONE', ( #198 ) ) ;
#50 = CC_DESIGN_PERSON_AND_ORGANIZATION_ASSIGNMENT ( #149, #210, ( #132 ) ) ;
#51 = AXIS2_PLACEMENT_3D ( 'NONE', #101, #67, #118 ) ;
#52 = DIRECTION ( 'NONE',  ( -3.491481338843133355E-15, -5.547069535256564892E-16, -1.000000000000000000 ) ) ;
#53 = AXIS2_PLACEMENT_3D ( 'NONE', #183, #20, #17 ) ;
#54 = VERTEX_POINT ( 'NONE', #206 ) ;
#55 = DIRECTION ( 'NONE',  ( -3.606188310145804551E-30, 1.000000000000000000, -1.015051770612530252E-15 ) ) ;
#56 = DIRECTION ( 'NONE',  ( 1.936748976761354905E-30, -1.000000000000000000, 5.547069535256564892E-16 ) ) ;
#57 = VERTEX_POINT ( 'NONE', #127 ) ;
#58 = PRODUCT_RELATED_PRODUCT_CATEGORY ( 'detail', '', ( #227 ) ) ;
#59 = DATE_AND_TIME ( #233, #3 ) ;
#60 = MANIFOLD_SOLID_BREP ( 'Corps-Déplacer/Copier1[1]', #191 ) ;
#61 = PERSON_AND_ORGANIZATION ( #222, #111 ) ;
#62 = EDGE_CURVE ( 'NONE', #243, #243, #64, .T. ) ;
#63 = PERSON_AND_ORGANIZATION ( #222, #111 ) ;
#64 = CIRCLE ( 'NONE', #51, 1.499999999999992673 ) ;
#65 = ADVANCED_FACE ( 'NONE', ( #213, #157 ), #147, .T. ) ;
#66 = EDGE_LOOP ( 'NONE', ( #236 ) ) ;
#67 = DIRECTION ( 'NONE',  ( -3.491481338843133355E-15, 1.049697256412017316E-16, -1.000000000000000000 ) ) ;
#68 = FACE_BOUND ( 'NONE', #45, .T. ) ;
#69 = CC_DESIGN_PERSON_AND_ORGANIZATION_ASSIGNMENT ( #130, #234, ( #116 ) ) ;
#70 = CARTESIAN_POINT ( 'NONE',  ( 2.444036937190193601E-13, -7.347880794884121511E-15, 70.00000000000000000 ) ) ;
#71 = AXIS2_PLACEMENT_3D ( 'NONE', #70, #18, #164 ) ;
#72 = DIRECTION ( 'NONE',  ( -3.491481338843133355E-15, -5.547069535256564892E-16, -1.000000000000000000 ) ) ;
#73 = CARTESIAN_POINT ( 'NONE',  ( 2.433562493173664138E-13, -7.316389877191761450E-15, 69.70000000000001705 ) ) ;
#74 = FACE_OUTER_BOUND ( 'NONE', #81, .T. ) ;
#75 = CARTESIAN_POINT ( 'NONE',  ( 3.743054138661422473E-14, 1.708999999999998742, 10.72053313594866708 ) ) ;
#76 = EDGE_CURVE ( 'NONE', #144, #144, #199, .T. ) ;
#77 = APPROVAL_DATE_TIME ( #169, #196 ) ;
#78 = MECHANICAL_CONTEXT ( 'NONE', #2, 'mechanical' ) ;
#79 = APPROVAL_DATE_TIME ( #229, #117 ) ;
#80 = COORDINATED_UNIVERSAL_TIME_OFFSET ( 1, 0, .AHEAD. ) ;
#81 = EDGE_LOOP ( 'NONE', ( #106 ) ) ;
#82 = ADVANCED_FACE ( 'NONE', ( #195, #30 ), #139, .T. ) ;
#83 = FACE_OUTER_BOUND ( 'NONE', #177, .T. ) ;
#84 = DIRECTION ( 'NONE',  ( 0.0000000000000000000, 1.000000000000000000, 0.0000000000000000000 ) ) ;
#85 = EDGE_LOOP ( 'NONE', ( #13 ) ) ;
#86 = AXIS2_PLACEMENT_3D ( 'NONE', #209, #131, #133 ) ;
#87 = ORIENTED_EDGE ( 'NONE', *, *, #62, .T. ) ;
#88 = CARTESIAN_POINT ( 'NONE',  ( 3.743054138661422473E-14, 5.946754276012937501E-15, 10.72053313594866708 ) ) ;
#89 = FACE_OUTER_BOUND ( 'NONE', #66, .T. ) ;
#90 = CONICAL_SURFACE ( 'NONE', #100, 1.564662432702592643, 0.5235987755982971503 ) ;
#91 = VERTEX_POINT ( 'NONE', #184 ) ;
#92 = CARTESIAN_POINT ( 'NONE',  ( 3.743054138661421841E-14, 1.708999999999998742, 10.72053313594866530 ) ) ;
#93 = AXIS2_PLACEMENT_3D ( 'NONE', #107, #220, #145 ) ;
#94 = APPROVAL_STATUS ( 'not_yet_approved' ) ;
#95 = ADVANCED_FACE ( 'NONE', ( #83 ), #29, .T. ) ;
#96 = CALENDAR_DATE ( 2021, 26, 11 ) ;
#97 =( GEOMETRIC_REPRESENTATION_CONTEXT ( 3 ) GLOBAL_UNCERTAINTY_ASSIGNED_CONTEXT ( ( #137 ) ) GLOBAL_UNIT_ASSIGNED_CONTEXT ( ( #242, #36, #129 ) ) REPRESENTATION_CONTEXT ( 'NONE', 'WORKASPACE' ) );
#98 = CALENDAR_DATE ( 2021, 26, 11 ) ;
#99 = DIRECTION ( 'NONE',  ( -3.491481338843133355E-15, 1.049697256412017316E-16, -1.000000000000000000 ) ) ;
#100 = AXIS2_PLACEMENT_3D ( 'NONE', #35, #223, #56 ) ;
#101 = CARTESIAN_POINT ( 'NONE',  ( 3.869445280877825183E-14, -1.163330317703974635E-15, 11.08253175473057617 ) ) ;
#102 = EDGE_CURVE ( 'NONE', #181, #181, #41, .T. ) ;
#103 = CARTESIAN_POINT ( 'NONE',  ( 0.0000000000000000000, 0.0000000000000000000, 0.0000000000000000000 ) ) ;
#104 = CARTESIAN_POINT ( 'NONE',  ( 3.743054138661422473E-14, 5.946754276012937501E-15, 10.72053313594866708 ) ) ;
#105 = CLOSED_SHELL ( 'NONE', ( #95, #205, #238, #156 ) ) ;
#106 = ORIENTED_EDGE ( 'NONE', *, *, #76, .T. ) ;
#107 = CARTESIAN_POINT ( 'NONE',  ( 3.743054138661421841E-14, -1.125331422007943500E-15, 10.72053313594866530 ) ) ;
#108 = FACE_OUTER_BOUND ( 'NONE', #153, .T. ) ;
#109 = DIRECTION ( 'NONE',  ( 1.936748976761354905E-30, -1.000000000000000000, 5.547069535256564892E-16 ) ) ;
#110 = PLANE ( 'NONE',  #208 ) ;
#111 = ORGANIZATION ( 'UNSPECIFIED', 'UNSPECIFIED', '' ) ;
#112 = COORDINATED_UNIVERSAL_TIME_OFFSET ( 1, 0, .AHEAD. ) ;
#113 = APPROVAL ( #94, 'UNSPECIFIED' ) ;
#114 = APPROVAL_ROLE ( '' ) ;
#115 = APPLICATION_PROTOCOL_DEFINITION ( 'international standard', 'config_control_design', 1994, #2 ) ;
#116 = SECURITY_CLASSIFICATION ( '', '', #173 ) ;
#117 = APPROVAL ( #8, 'UNSPECIFIED' ) ;
#118 = DIRECTION ( 'NONE',  ( 0.0000000000000000000, 1.000000000000000000, 0.0000000000000000000 ) ) ;
#119 = EDGE_LOOP ( 'NONE', ( #121 ) ) ;
#120 = DIRECTION ( 'NONE',  ( -3.491481338843133355E-15, 1.049697256412017316E-16, -1.000000000000000000 ) ) ;
#121 = ORIENTED_EDGE ( 'NONE', *, *, #102, .T. ) ;
#122 = ADVANCED_FACE ( 'NONE', ( #123 ), #1, .T. ) ;
#123 = FACE_OUTER_BOUND ( 'NONE', #180, .T. ) ;
#124 = DIRECTION ( 'NONE',  ( 0.0000000000000000000, 1.000000000000000000, 0.0000000000000000000 ) ) ;
#125 = CARTESIAN_POINT ( 'NONE',  ( -1.892735826383161356E-31, 1.564662432702592643, -5.421010862427522170E-17 ) ) ;
#126 = CARTESIAN_POINT ( 'NONE',  ( 3.869445280877825183E-14, 1.499999999999991562, 11.08253175473057617 ) ) ;
#127 = CARTESIAN_POINT ( 'NONE',  ( 2.433562493173664138E-13, 1.499999999999990230, 69.70000000000001705 ) ) ;
#128 = COORDINATED_UNIVERSAL_TIME_OFFSET ( 1, 0, .AHEAD. ) ;
#129 =( NAMED_UNIT ( * ) SI_UNIT ( $, .STERADIAN. ) SOLID_ANGLE_UNIT ( ) );
#130 = PERSON_AND_ORGANIZATION ( #222, #111 ) ;
#131 = DIRECTION ( 'NONE',  ( 0.0000000000000000000, 0.0000000000000000000, 1.000000000000000000 ) ) ;
#132 = PRODUCT_DEFINITION ( 'UNKNOWN', '', #179, #14 ) ;
#133 = DIRECTION ( 'NONE',  ( 1.000000000000000000, 0.0000000000000000000, 0.0000000000000000000 ) ) ;
#134 = LOCAL_TIME ( 14, 1, 45.00000000000000000, #40 ) ;
#135 = DIRECTION ( 'NONE',  ( -3.491481338843133355E-15, 1.049697256412017316E-16, -1.000000000000000000 ) ) ;
#136 = ORIENTED_EDGE ( 'NONE', *, *, #160, .T. ) ;
#137 = UNCERTAINTY_MEASURE_WITH_UNIT (LENGTH_MEASURE( 1.000000000000000082E-05 ), #242, 'distance_accuracy_value', 'NONE');
#138 = CC_DESIGN_PERSON_AND_ORGANIZATION_ASSIGNMENT ( #42, #188, ( #227 ) ) ;
#139 = CYLINDRICAL_SURFACE ( 'NONE', #10, 1.499999999999995337 ) ;
#140 = APPROVAL_PERSON_ORGANIZATION ( #61, #117, #27 ) ;
#141 = DIRECTION ( 'NONE',  ( 3.664998382197393967E-31, 1.000000000000000000, 1.049697256412017316E-16 ) ) ;
#142 = CARTESIAN_POINT ( 'NONE',  ( -1.609815974075997319E-30, 1.564662432702592643, -4.610696199823864964E-16 ) ) ;
#143 = CC_DESIGN_APPROVAL ( #196, ( #132 ) ) ;
#144 = VERTEX_POINT ( 'NONE', #125 ) ;
#145 = DIRECTION ( 'NONE',  ( 0.0000000000000000000, 1.000000000000000000, 0.0000000000000000000 ) ) ;
#146 = DIRECTION ( 'NONE',  ( 3.664998382197393967E-31, 1.000000000000000000, 1.049697256412017316E-16 ) ) ;
#147 = CONICAL_SURFACE ( 'NONE', #154, 1.499999999999997558, 0.7853981633974573828 ) ;
#148 = DIRECTION ( 'NONE',  ( -1.915787539764952625E-30, 1.000000000000000000, -5.392462531379049956E-16 ) ) ;
#149 = PERSON_AND_ORGANIZATION ( #222, #111 ) ;
#150 = SHAPE_DEFINITION_REPRESENTATION ( #31, #161 ) ;
#151 = APPROVAL_DATE_TIME ( #4, #113 ) ;
#152 = PERSON_AND_ORGANIZATION ( #222, #111 ) ;
#153 = EDGE_LOOP ( 'NONE', ( #178 ) ) ;
#154 = AXIS2_PLACEMENT_3D ( 'NONE', #214, #99, #155 ) ;
#155 = DIRECTION ( 'NONE',  ( 0.0000000000000000000, 1.000000000000000000, 0.0000000000000000000 ) ) ;
#156 = ADVANCED_FACE ( 'NONE', ( #74 ), #110, .T. ) ;
#157 = FACE_OUTER_BOUND ( 'NONE', #219, .T. ) ;
#158 = AXIS2_PLACEMENT_3D ( 'NONE', #48, #135, #194 ) ;
#159 = EDGE_LOOP ( 'NONE', ( #197 ) ) ;
#160 = EDGE_CURVE ( 'NONE', #168, #168, #235, .T. ) ;
#161 = ADVANCED_BREP_SHAPE_REPRESENTATION ( '321245', ( #60, #232, #86 ), #97 ) ;
#162 = APPLICATION_CONTEXT ( 'configuration controlled 3d designs of mechanical parts and assemblies' ) ;
#163 = DIRECTION ( 'NONE',  ( -1.936748976761354905E-30, 1.000000000000000000, -5.547069535256564892E-16 ) ) ;
#164 = DIRECTION ( 'NONE',  ( -3.664998382197393967E-31, -1.000000000000000000, -1.049697256412017316E-16 ) ) ;
#165 = CIRCLE ( 'NONE', #38, 1.708999999999998520 ) ;
#166 = FACE_BOUND ( 'NONE', #49, .T. ) ;
#167 = FACE_OUTER_BOUND ( 'NONE', #32, .T. ) ;
#168 = VERTEX_POINT ( 'NONE', #203 ) ;
#169 = DATE_AND_TIME ( #189, #172 ) ;
#170 = APPROVAL_ROLE ( '' ) ;
#171 = CALENDAR_DATE ( 2021, 26, 11 ) ;
#172 = LOCAL_TIME ( 14, 1, 45.00000000000000000, #186 ) ;
#173 = SECURITY_CLASSIFICATION_LEVEL ( 'unclassified' ) ;
#174 = CARTESIAN_POINT ( 'NONE',  ( 2.841084782875362411E-30, 4.513756001167902467E-31, 8.137190227162224508E-16 ) ) ;
#175 = AXIS2_PLACEMENT_3D ( 'NONE', #88, #52, #55 ) ;
#176 = AXIS2_PLACEMENT_3D ( 'NONE', #73, #224, #124 ) ;
#177 = EDGE_LOOP ( 'NONE', ( #33 ) ) ;
#178 = ORIENTED_EDGE ( 'NONE', *, *, #225, .T. ) ;
#179 = PRODUCT_DEFINITION_FORMATION_WITH_SPECIFIED_SOURCE ( 'ANY', '', #227, .NOT_KNOWN. ) ;
#180 = EDGE_LOOP ( 'NONE', ( #237 ) ) ;
#181 = VERTEX_POINT ( 'NONE', #92 ) ;
#182 = AXIS2_PLACEMENT_3D ( 'NONE', #75, #37, #146 ) ;
#183 = CARTESIAN_POINT ( 'NONE',  ( 0.0000000000000000000, 0.0000000000000000000, 0.0000000000000000000 ) ) ;
#184 = CARTESIAN_POINT ( 'NONE',  ( 2.444036937190193601E-13, 1.199999999999990186, 70.00000000000000000 ) ) ;
#185 = ADVANCED_FACE ( 'NONE', ( #167 ), #39, .T. ) ;
#186 = COORDINATED_UNIVERSAL_TIME_OFFSET ( 1, 0, .AHEAD. ) ;
#187 = CC_DESIGN_SECURITY_CLASSIFICATION ( #116, ( #179 ) ) ;
#188 = PERSON_AND_ORGANIZATION_ROLE ( 'design_owner' ) ;
#189 = CALENDAR_DATE ( 2021, 26, 11 ) ;
#190 = APPLICATION_PROTOCOL_DEFINITION ( 'international standard', 'config_control_design', 1994, #162 ) ;
#191 = CLOSED_SHELL ( 'NONE', ( #122, #65, #82, #46, #185 ) ) ;
#192 = LOCAL_TIME ( 14, 1, 45.00000000000000000, #112 ) ;
#193 = ORIENTED_EDGE ( 'NONE', *, *, #62, .F. ) ;
#194 = DIRECTION ( 'NONE',  ( 0.0000000000000000000, 1.000000000000000000, 0.0000000000000000000 ) ) ;
#195 = FACE_OUTER_BOUND ( 'NONE', #215, .T. ) ;
#196 = APPROVAL ( #24, 'UNSPECIFIED' ) ;
#197 = ORIENTED_EDGE ( 'NONE', *, *, #160, .F. ) ;
#198 = ORIENTED_EDGE ( 'NONE', *, *, #76, .F. ) ;
#199 = CIRCLE ( 'NONE', #226, 1.564662432702592643 ) ;
#200 = CONICAL_SURFACE ( 'NONE', #22, 1.708999999999999853, 0.5235987755982941527 ) ;
#201 = CYLINDRICAL_SURFACE ( 'NONE', #53, 1.708999999999995634 ) ;
#202 = EDGE_CURVE ( 'NONE', #57, #57, #6, .T. ) ;
#203 = CARTESIAN_POINT ( 'NONE',  ( 3.743054138661421841E-14, 1.708999999999998742, 10.72053313594866530 ) ) ;
#204 = DIRECTION ( 'NONE',  ( -3.491481338843133355E-15, -5.547069535256564892E-16, -1.000000000000000000 ) ) ;
#205 = ADVANCED_FACE ( 'NONE', ( #21, #89 ), #201, .T. ) ;
#206 = CARTESIAN_POINT ( 'NONE',  ( 8.728703347107831416E-16, 1.708999999999998742, 0.2499999999999999445 ) ) ;
#207 = PERSON_AND_ORGANIZATION ( #222, #111 ) ;
#208 = AXIS2_PLACEMENT_3D ( 'NONE', #142, #72, #163 ) ;
#209 = CARTESIAN_POINT ( 'NONE',  ( 0.0000000000000000000, 0.0000000000000000000, 0.0000000000000000000 ) ) ;
#210 = PERSON_AND_ORGANIZATION_ROLE ( 'creator' ) ;
#211 = PERSON_AND_ORGANIZATION_ROLE ( 'design_supplier' ) ;
#212 = CC_DESIGN_PERSON_AND_ORGANIZATION_ASSIGNMENT ( #152, #211, ( #179 ) ) ;
#213 = FACE_BOUND ( 'NONE', #85, .T. ) ;
#214 = CARTESIAN_POINT ( 'NONE',  ( 2.433562493173664138E-13, -7.316389877191761450E-15, 69.70000000000001705 ) ) ;
#215 = EDGE_LOOP ( 'NONE', ( #16 ) ) ;
#216 = CC_DESIGN_PERSON_AND_ORGANIZATION_ASSIGNMENT ( #43, #25, ( #179 ) ) ;
#217 = LOCAL_TIME ( 14, 1, 45.00000000000000000, #80 ) ;
#218 = DIRECTION ( 'NONE',  ( -3.491481338843133355E-15, -5.547069535256564892E-16, -1.000000000000000000 ) ) ;
#219 = EDGE_LOOP ( 'NONE', ( #239 ) ) ;
#220 = DIRECTION ( 'NONE',  ( -3.491481338843133355E-15, 1.049697256412017316E-16, -1.000000000000000000 ) ) ;
#221 = AXIS2_PLACEMENT_3D ( 'NONE', #104, #241, #109 ) ;
#222 = PERSON ( 'UNSPECIFIED', 'UNSPECIFIED', 'UNSPECIFIED', ('UNSPECIFIED'), ('UNSPECIFIED'), ('UNSPECIFIED') ) ;
#223 = DIRECTION ( 'NONE',  ( 3.491481338843133355E-15, 5.547069535256564892E-16, 1.000000000000000000 ) ) ;
#224 = DIRECTION ( 'NONE',  ( -3.491481338843133355E-15, 1.049697256412017316E-16, -1.000000000000000000 ) ) ;
#225 = EDGE_CURVE ( 'NONE', #54, #54, #165, .T. ) ;
#226 = AXIS2_PLACEMENT_3D ( 'NONE', #174, #218, #12 ) ;
#227 = PRODUCT ( '321245', '321245', '', ( #78 ) ) ;
#228 = CARTESIAN_POINT ( 'NONE',  ( 8.728703347107864943E-16, 1.386767383814146154E-16, 0.2500000000000008882 ) ) ;
#229 = DATE_AND_TIME ( #98, #217 ) ;
#230 = CC_DESIGN_APPROVAL ( #117, ( #179 ) ) ;
#231 = DATE_TIME_ROLE ( 'creation_date' ) ;
#232 = MANIFOLD_SOLID_BREP ( 'Corps-Déplacer/Copier1[2]', #105 ) ;
#233 = CALENDAR_DATE ( 2021, 26, 11 ) ;
#234 = PERSON_AND_ORGANIZATION_ROLE ( 'classification_officer' ) ;
#235 = CIRCLE ( 'NONE', #93, 1.708999999999999853 ) ;
#236 = ORIENTED_EDGE ( 'NONE', *, *, #225, .F. ) ;
#237 = ORIENTED_EDGE ( 'NONE', *, *, #5, .F. ) ;
#238 = ADVANCED_FACE ( 'NONE', ( #108, #166 ), #90, .T. ) ;
#239 = ORIENTED_EDGE ( 'NONE', *, *, #202, .F. ) ;
#240 = CARTESIAN_POINT ( 'NONE',  ( 3.743054138661421841E-14, -1.125331422007943500E-15, 10.72053313594866530 ) ) ;
#241 = DIRECTION ( 'NONE',  ( 3.491481338843133355E-15, 5.547069535256564892E-16, 1.000000000000000000 ) ) ;
#242 =( LENGTH_UNIT ( ) NAMED_UNIT ( * ) SI_UNIT ( .MILLI., .METRE. ) );
#243 = VERTEX_POINT ( 'NONE', #126 ) ;
ENDSEC;
END-ISO-10303-21;
