ISO-10303-21;
HEADER;
FILE_DESCRIPTION (( 'STEP AP203' ),
    '1' );
FILE_NAME ('321244.step',
    '2021-11-26T13:01:45',
    ( '' ),
    ( '' ),
    'SwSTEP 2.0',
    'SolidWorks 2019',
    '' );
FILE_SCHEMA (( 'CONFIG_CONTROL_DESIGN' ));
ENDSEC;

DATA;
#1 = ORIENTED_EDGE ( 'NONE', *, *, #114, .F. ) ;
#2 = FACE_OUTER_BOUND ( 'NONE', #139, .T. ) ;
#3 = CARTESIAN_POINT ( 'NONE',  ( -1.603216718688214082E-30, 1.559662432702592527, -4.591795181180672801E-16 ) ) ;
#4 = ADVANCED_FACE ( 'NONE', ( #79, #44 ), #168, .T. ) ;
#5 = AXIS2_PLACEMENT_3D ( 'NONE', #210, #27, #124 ) ;
#6 = DIRECTION ( 'NONE',  ( 1.934495434060022522E-30, -1.000000000000000000, 5.540615132432578405E-16 ) ) ;
#7 = PLANE ( 'NONE',  #173 ) ;
#8 = DIRECTION ( 'NONE',  ( 0.0000000000000000000, 1.000000000000000000, 0.0000000000000000000 ) ) ;
#9 = CARTESIAN_POINT ( 'NONE',  ( 3.869445280877825183E-14, 1.499999999999991562, 11.08253175473057617 ) ) ;
#10 = VERTEX_POINT ( 'NONE', #9 ) ;
#11 = APPROVAL_DATE_TIME ( #12, #96 ) ;
#12 = DATE_AND_TIME ( #201, #94 ) ;
#13 = EDGE_CURVE ( 'NONE', #29, #29, #61, .T. ) ;
#14 = EDGE_LOOP ( 'NONE', ( #38 ) ) ;
#15 = COORDINATED_UNIVERSAL_TIME_OFFSET ( 1, 0, .AHEAD. ) ;
#16 = DIRECTION ( 'NONE',  ( 0.0000000000000000000, 1.000000000000000000, 0.0000000000000000000 ) ) ;
#17 = PRODUCT_DEFINITION_FORMATION_WITH_SPECIFIED_SOURCE ( 'ANY', '', #51, .NOT_KNOWN. ) ;
#18 = ORIENTED_EDGE ( 'NONE', *, *, #114, .T. ) ;
#19 = PERSON_AND_ORGANIZATION ( #163, #226 ) ;
#20 = CARTESIAN_POINT ( 'NONE',  ( 2.433562493173664138E-13, -7.316389877191761450E-15, 69.70000000000001705 ) ) ;
#21 = ADVANCED_FACE ( 'NONE', ( #84 ), #7, .T. ) ;
#22 = ORIENTED_EDGE ( 'NONE', *, *, #13, .T. ) ;
#23 = DIRECTION ( 'NONE',  ( -3.491481338843133355E-15, -5.540615132432578405E-16, -1.000000000000000000 ) ) ;
#24 = APPLICATION_CONTEXT ( 'configuration controlled 3d designs of mechanical parts and assemblies' ) ;
#25 = ADVANCED_FACE ( 'NONE', ( #65 ), #177, .T. ) ;
#26 = DIRECTION ( 'NONE',  ( 0.0000000000000000000, 1.000000000000000000, 0.0000000000000000000 ) ) ;
#27 = DIRECTION ( 'NONE',  ( -3.491481338843133355E-15, -5.540615132432578405E-16, -1.000000000000000000 ) ) ;
#28 = AXIS2_PLACEMENT_3D ( 'NONE', #148, #122, #50 ) ;
#29 = VERTEX_POINT ( 'NONE', #68 ) ;
#30 = DIRECTION ( 'NONE',  ( -3.491481338843133355E-15, 1.049697256412017316E-16, -1.000000000000000000 ) ) ;
#31 = APPROVAL_STATUS ( 'not_yet_approved' ) ;
#32 = CALENDAR_DATE ( 2021, 26, 11 ) ;
#33 = PERSON_AND_ORGANIZATION_ROLE ( 'design_supplier' ) ;
#34 = CLOSED_SHELL ( 'NONE', ( #21, #171, #91, #25 ) ) ;
#35 = CARTESIAN_POINT ( 'NONE',  ( 3.746077850197698715E-14, 1.703999999999998627, 10.72919338998650751 ) ) ;
#36 = ADVANCED_FACE ( 'NONE', ( #179 ), #146, .T. ) ;
#37 = DATE_AND_TIME ( #185, #116 ) ;
#38 = ORIENTED_EDGE ( 'NONE', *, *, #110, .T. ) ;
#39 = ORIENTED_EDGE ( 'NONE', *, *, #220, .T. ) ;
#40 = LOCAL_TIME ( 14, 1, 45.00000000000000000, #204 ) ;
#41 = SHAPE_DEFINITION_REPRESENTATION ( #64, #172 ) ;
#42 = ORIENTED_EDGE ( 'NONE', *, *, #167, .T. ) ;
#43 = ADVANCED_FACE ( 'NONE', ( #2, #128 ), #82, .T. ) ;
#44 = FACE_OUTER_BOUND ( 'NONE', #113, .T. ) ;
#45 = DIRECTION ( 'NONE',  ( 3.491481338843133355E-15, -1.049697256412017316E-16, 1.000000000000000000 ) ) ;
#46 = CIRCLE ( 'NONE', #89, 1.703999999999999737 ) ;
#47 = CC_DESIGN_PERSON_AND_ORGANIZATION_ASSIGNMENT ( #153, #219, ( #17 ) ) ;
#48 = FACE_OUTER_BOUND ( 'NONE', #60, .T. ) ;
#49 = CARTESIAN_POINT ( 'NONE',  ( 0.0000000000000000000, 0.0000000000000000000, 0.0000000000000000000 ) ) ;
#50 = DIRECTION ( 'NONE',  ( 0.0000000000000000000, 1.000000000000000000, 0.0000000000000000000 ) ) ;
#51 = PRODUCT ( '321244', '321244', '', ( #107 ) ) ;
#52 = DIRECTION ( 'NONE',  ( -3.491481338843133355E-15, 1.049697256412017316E-16, -1.000000000000000000 ) ) ;
#53 = CC_DESIGN_DATE_AND_TIME_ASSIGNMENT ( #74, #240, ( #145 ) ) ;
#54 = PERSON_AND_ORGANIZATION ( #163, #226 ) ;
#55 =( NAMED_UNIT ( * ) SI_UNIT ( $, .STERADIAN. ) SOLID_ANGLE_UNIT ( ) );
#56 = CC_DESIGN_PERSON_AND_ORGANIZATION_ASSIGNMENT ( #19, #119, ( #140 ) ) ;
#57 = APPLICATION_PROTOCOL_DEFINITION ( 'international standard', 'config_control_design', 1994, #138 ) ;
#58 = APPROVAL_DATE_TIME ( #182, #123 ) ;
#59 = AXIS2_PLACEMENT_3D ( 'NONE', #71, #214, #8 ) ;
#60 = EDGE_LOOP ( 'NONE', ( #243 ) ) ;
#61 = CIRCLE ( 'NONE', #195, 1.199999999999997513 ) ;
#62 = ORIENTED_EDGE ( 'NONE', *, *, #136, .F. ) ;
#63 = EDGE_LOOP ( 'NONE', ( #223 ) ) ;
#64 = PRODUCT_DEFINITION_SHAPE ( 'NONE', 'NONE',  #145 ) ;
#65 = FACE_OUTER_BOUND ( 'NONE', #186, .T. ) ;
#66 = CC_DESIGN_PERSON_AND_ORGANIZATION_ASSIGNMENT ( #133, #33, ( #17 ) ) ;
#67 = CARTESIAN_POINT ( 'NONE',  ( 3.746077850197699346E-14, 5.944633125535485835E-15, 10.72919338998650929 ) ) ;
#68 = CARTESIAN_POINT ( 'NONE',  ( 2.444036937190193601E-13, 1.199999999999990186, 70.00000000000000000 ) ) ;
#69 = DIRECTION ( 'NONE',  ( -3.491481338843133355E-15, 1.049697256412017316E-16, -1.000000000000000000 ) ) ;
#70 = PRODUCT_RELATED_PRODUCT_CATEGORY ( 'detail', '', ( #51 ) ) ;
#71 = CARTESIAN_POINT ( 'NONE',  ( 3.746077850197698715E-14, -1.126240486498278830E-15, 10.72919338998650751 ) ) ;
#72 = CIRCLE ( 'NONE', #106, 1.703999999999992854 ) ;
#73 = PERSON_AND_ORGANIZATION ( #163, #226 ) ;
#74 = DATE_AND_TIME ( #202, #218 ) ;
#75 = DIRECTION ( 'NONE',  ( 0.0000000000000000000, 0.0000000000000000000, 1.000000000000000000 ) ) ;
#76 = SECURITY_CLASSIFICATION_LEVEL ( 'unclassified' ) ;
#77 = DIRECTION ( 'NONE',  ( -3.491481338843133355E-15, 1.049697256412017316E-16, -1.000000000000000000 ) ) ;
#78 = ADVANCED_FACE ( 'NONE', ( #178, #48 ), #164, .T. ) ;
#79 = FACE_BOUND ( 'NONE', #190, .T. ) ;
#80 = CARTESIAN_POINT ( 'NONE',  ( 3.746077850197698715E-14, -1.126240486498278830E-15, 10.72919338998650751 ) ) ;
#81 = DIRECTION ( 'NONE',  ( 3.491481338843133355E-15, 5.540615132432578405E-16, 1.000000000000000000 ) ) ;
#82 = CYLINDRICAL_SURFACE ( 'NONE', #233, 1.499999999999995337 ) ;
#83 = CC_DESIGN_PERSON_AND_ORGANIZATION_ASSIGNMENT ( #151, #152, ( #145 ) ) ;
#84 = FACE_OUTER_BOUND ( 'NONE', #100, .T. ) ;
#85 = VERTEX_POINT ( 'NONE', #181 ) ;
#86 = CARTESIAN_POINT ( 'NONE',  ( 2.433562493173664138E-13, 1.499999999999990230, 69.70000000000001705 ) ) ;
#87 = CC_DESIGN_DATE_AND_TIME_ASSIGNMENT ( #37, #92, ( #140 ) ) ;
#88 = CLOSED_SHELL ( 'NONE', ( #159, #4, #43, #78, #36 ) ) ;
#89 = AXIS2_PLACEMENT_3D ( 'NONE', #80, #30, #230 ) ;
#90 = VERTEX_POINT ( 'NONE', #35 ) ;
#91 = ADVANCED_FACE ( 'NONE', ( #157, #162 ), #221, .T. ) ;
#92 = DATE_TIME_ROLE ( 'classification_date' ) ;
#93 = EDGE_LOOP ( 'NONE', ( #155 ) ) ;
#94 = LOCAL_TIME ( 14, 1, 45.00000000000000000, #200 ) ;
#95 = DATE_AND_TIME ( #115, #40 ) ;
#96 = APPROVAL ( #31, 'UNSPECIFIED' ) ;
#97 = APPROVAL_ROLE ( '' ) ;
#98 = DIRECTION ( 'NONE',  ( 0.0000000000000000000, 1.000000000000000000, 0.0000000000000000000 ) ) ;
#99 = APPROVAL_PERSON_ORGANIZATION ( #54, #123, #166 ) ;
#100 = EDGE_LOOP ( 'NONE', ( #187 ) ) ;
#101 = CARTESIAN_POINT ( 'NONE',  ( 2.444036937190193601E-13, -7.347880794884121511E-15, 70.00000000000000000 ) ) ;
#102 = DIRECTION ( 'NONE',  ( -1.934495434060022522E-30, 1.000000000000000000, -5.540615132432577419E-16 ) ) ;
#103 = CARTESIAN_POINT ( 'NONE',  ( 3.746077850197699346E-14, 1.703999999999998627, 10.72919338998650929 ) ) ;
#104 = VERTEX_POINT ( 'NONE', #109 ) ;
#105 = DIRECTION ( 'NONE',  ( -3.491481338843133355E-15, -5.540615132432578405E-16, -1.000000000000000000 ) ) ;
#106 = AXIS2_PLACEMENT_3D ( 'NONE', #158, #105, #144 ) ;
#107 = MECHANICAL_CONTEXT ( 'NONE', #24, 'mechanical' ) ;
#108 = CARTESIAN_POINT ( 'NONE',  ( 0.0000000000000000000, 0.0000000000000000000, 0.0000000000000000000 ) ) ;
#109 = CARTESIAN_POINT ( 'NONE',  ( 8.728703347107831416E-16, 1.703999999999998627, 0.2499999999999999445 ) ) ;
#110 = EDGE_CURVE ( 'NONE', #104, #104, #191, .T. ) ;
#111 = AXIS2_PLACEMENT_3D ( 'NONE', #147, #192, #196 ) ;
#112 = PERSON_AND_ORGANIZATION ( #163, #226 ) ;
#113 = EDGE_LOOP ( 'NONE', ( #62 ) ) ;
#114 = EDGE_CURVE ( 'NONE', #10, #10, #222, .T. ) ;
#115 = CALENDAR_DATE ( 2021, 26, 11 ) ;
#116 = LOCAL_TIME ( 14, 1, 45.00000000000000000, #15 ) ;
#117 = PERSON_AND_ORGANIZATION ( #163, #226 ) ;
#118 = EDGE_LOOP ( 'NONE', ( #208 ) ) ;
#119 = PERSON_AND_ORGANIZATION_ROLE ( 'classification_officer' ) ;
#120 = CC_DESIGN_SECURITY_CLASSIFICATION ( #140, ( #17 ) ) ;
#121 = DIRECTION ( 'NONE',  ( -3.664998382197393967E-31, -1.000000000000000000, -1.049697256412017316E-16 ) ) ;
#122 = DIRECTION ( 'NONE',  ( -3.491481338843133355E-15, 1.049697256412017316E-16, -1.000000000000000000 ) ) ;
#123 = APPROVAL ( #134, 'UNSPECIFIED' ) ;
#124 = DIRECTION ( 'NONE',  ( -1.921408982076469417E-30, 1.000000000000000000, -5.408285484816194810E-16 ) ) ;
#125 = FACE_OUTER_BOUND ( 'NONE', #63, .T. ) ;
#126 = AXIS2_PLACEMENT_3D ( 'NONE', #103, #52, #194 ) ;
#127 = APPROVAL_PERSON_ORGANIZATION ( #112, #96, #184 ) ;
#128 = FACE_OUTER_BOUND ( 'NONE', #141, .T. ) ;
#129 = VERTEX_POINT ( 'NONE', #216 ) ;
#130 =( LENGTH_UNIT ( ) NAMED_UNIT ( * ) SI_UNIT ( .MILLI., .METRE. ) );
#131 = AXIS2_PLACEMENT_3D ( 'NONE', #193, #229, #102 ) ;
#132 = COORDINATED_UNIVERSAL_TIME_OFFSET ( 1, 0, .AHEAD. ) ;
#133 = PERSON_AND_ORGANIZATION ( #163, #226 ) ;
#134 = APPROVAL_STATUS ( 'not_yet_approved' ) ;
#135 = UNCERTAINTY_MEASURE_WITH_UNIT (LENGTH_MEASURE( 1.000000000000000082E-05 ), #130, 'distance_accuracy_value', 'NONE');
#136 = EDGE_CURVE ( 'NONE', #235, #235, #203, .T. ) ;
#137 = EDGE_LOOP ( 'NONE', ( #39 ) ) ;
#138 = APPLICATION_CONTEXT ( 'configuration controlled 3d designs of mechanical parts and assemblies' ) ;
#139 = EDGE_LOOP ( 'NONE', ( #156 ) ) ;
#140 = SECURITY_CLASSIFICATION ( '', '', #76 ) ;
#141 = EDGE_LOOP ( 'NONE', ( #1 ) ) ;
#142 = CARTESIAN_POINT ( 'NONE',  ( 2.827886272099796287E-30, 4.487559276827179263E-31, 8.099388189875840181E-16 ) ) ;
#143 = CC_DESIGN_APPROVAL ( #96, ( #17 ) ) ;
#144 = DIRECTION ( 'NONE',  ( -3.616769848614542785E-30, 1.000000000000000000, -1.018030208906581257E-15 ) ) ;
#145 = PRODUCT_DEFINITION ( 'UNKNOWN', '', #17, #242 ) ;
#146 = PLANE ( 'NONE',  #126 ) ;
#147 = CARTESIAN_POINT ( 'NONE',  ( 2.827886272099796287E-30, 4.487559276827179263E-31, 8.099388189875840181E-16 ) ) ;
#148 = CARTESIAN_POINT ( 'NONE',  ( 3.869445280877825183E-14, -1.163330317703974635E-15, 11.08253175473057617 ) ) ;
#149 = AXIS2_PLACEMENT_3D ( 'NONE', #20, #77, #98 ) ;
#150 = CC_DESIGN_APPROVAL ( #123, ( #145 ) ) ;
#151 = PERSON_AND_ORGANIZATION ( #163, #226 ) ;
#152 = PERSON_AND_ORGANIZATION_ROLE ( 'creator' ) ;
#153 = PERSON_AND_ORGANIZATION ( #163, #226 ) ;
#154 = DIRECTION ( 'NONE',  ( -3.491481338843133355E-15, 1.049697256412017316E-16, -1.000000000000000000 ) ) ;
#155 = ORIENTED_EDGE ( 'NONE', *, *, #239, .T. ) ;
#156 = ORIENTED_EDGE ( 'NONE', *, *, #136, .T. ) ;
#157 = FACE_OUTER_BOUND ( 'NONE', #14, .T. ) ;
#158 = CARTESIAN_POINT ( 'NONE',  ( 3.746077850197699346E-14, 5.944633125535485046E-15, 10.72919338998650929 ) ) ;
#159 = ADVANCED_FACE ( 'NONE', ( #125 ), #161, .T. ) ;
#160 = LOCAL_TIME ( 14, 1, 45.00000000000000000, #236 ) ;
#161 = PLANE ( 'NONE',  #238 ) ;
#162 = FACE_BOUND ( 'NONE', #170, .T. ) ;
#163 = PERSON ( 'UNSPECIFIED', 'UNSPECIFIED', 'UNSPECIFIED', ('UNSPECIFIED'), ('UNSPECIFIED'), ('UNSPECIFIED') ) ;
#164 = CONICAL_SURFACE ( 'NONE', #59, 1.703999999999999737, 0.5235987755982929315 ) ;
#165 = CIRCLE ( 'NONE', #111, 1.559662432702592527 ) ;
#166 = APPROVAL_ROLE ( '' ) ;
#167 = EDGE_CURVE ( 'NONE', #85, #85, #165, .T. ) ;
#168 = CONICAL_SURFACE ( 'NONE', #149, 1.499999999999997558, 0.7853981633974573828 ) ;
#169 = AXIS2_PLACEMENT_3D ( 'NONE', #231, #69, #26 ) ;
#170 = EDGE_LOOP ( 'NONE', ( #205 ) ) ;
#171 = ADVANCED_FACE ( 'NONE', ( #176, #215 ), #197, .T. ) ;
#172 = ADVANCED_BREP_SHAPE_REPRESENTATION ( '321244', ( #227, #224, #188 ), #199 ) ;
#173 = AXIS2_PLACEMENT_3D ( 'NONE', #67, #228, #6 ) ;
#174 = CARTESIAN_POINT ( 'NONE',  ( 2.444036937190193601E-13, -7.347880794884121511E-15, 70.00000000000000000 ) ) ;
#175 = CC_DESIGN_PERSON_AND_ORGANIZATION_ASSIGNMENT ( #73, #237, ( #51 ) ) ;
#176 = FACE_OUTER_BOUND ( 'NONE', #93, .T. ) ;
#177 = PLANE ( 'NONE',  #225 ) ;
#178 = FACE_BOUND ( 'NONE', #189, .T. ) ;
#179 = FACE_OUTER_BOUND ( 'NONE', #137, .T. ) ;
#180 = DIRECTION ( 'NONE',  ( -1.934495434060022522E-30, 1.000000000000000000, -5.540615132432578405E-16 ) ) ;
#181 = CARTESIAN_POINT ( 'NONE',  ( -1.892735826383161356E-31, 1.559662432702592527, -5.421010862427522170E-17 ) ) ;
#182 = DATE_AND_TIME ( #32, #160 ) ;
#183 = APPLICATION_PROTOCOL_DEFINITION ( 'international standard', 'config_control_design', 1994, #24 ) ;
#184 = APPROVAL_ROLE ( '' ) ;
#185 = CALENDAR_DATE ( 2021, 26, 11 ) ;
#186 = EDGE_LOOP ( 'NONE', ( #42 ) ) ;
#187 = ORIENTED_EDGE ( 'NONE', *, *, #239, .F. ) ;
#188 = AXIS2_PLACEMENT_3D ( 'NONE', #108, #75, #198 ) ;
#189 = EDGE_LOOP ( 'NONE', ( #18 ) ) ;
#190 = EDGE_LOOP ( 'NONE', ( #22 ) ) ;
#191 = CIRCLE ( 'NONE', #5, 1.703999999999998405 ) ;
#192 = DIRECTION ( 'NONE',  ( -3.491481338843133355E-15, -5.540615132432578405E-16, -1.000000000000000000 ) ) ;
#193 = CARTESIAN_POINT ( 'NONE',  ( 0.0000000000000000000, 0.0000000000000000000, 0.0000000000000000000 ) ) ;
#194 = DIRECTION ( 'NONE',  ( 3.664998382197393967E-31, 1.000000000000000000, 1.049697256412017316E-16 ) ) ;
#195 = AXIS2_PLACEMENT_3D ( 'NONE', #174, #154, #16 ) ;
#196 = DIRECTION ( 'NONE',  ( -1.934495434060022522E-30, 1.000000000000000000, -5.540615132432578405E-16 ) ) ;
#197 = CYLINDRICAL_SURFACE ( 'NONE', #131, 1.703999999999995740 ) ;
#198 = DIRECTION ( 'NONE',  ( 1.000000000000000000, 0.0000000000000000000, 0.0000000000000000000 ) ) ;
#199 =( GEOMETRIC_REPRESENTATION_CONTEXT ( 3 ) GLOBAL_UNCERTAINTY_ASSIGNED_CONTEXT ( ( #135 ) ) GLOBAL_UNIT_ASSIGNED_CONTEXT ( ( #130, #217, #55 ) ) REPRESENTATION_CONTEXT ( 'NONE', 'WORKASPACE' ) );
#200 = COORDINATED_UNIVERSAL_TIME_OFFSET ( 1, 0, .AHEAD. ) ;
#201 = CALENDAR_DATE ( 2021, 26, 11 ) ;
#202 = CALENDAR_DATE ( 2021, 26, 11 ) ;
#203 = CIRCLE ( 'NONE', #169, 1.499999999999997558 ) ;
#204 = COORDINATED_UNIVERSAL_TIME_OFFSET ( 1, 0, .AHEAD. ) ;
#205 = ORIENTED_EDGE ( 'NONE', *, *, #167, .F. ) ;
#206 = APPROVAL ( #207, 'UNSPECIFIED' ) ;
#207 = APPROVAL_STATUS ( 'not_yet_approved' ) ;
#208 = ORIENTED_EDGE ( 'NONE', *, *, #110, .F. ) ;
#209 = APPROVAL_DATE_TIME ( #95, #206 ) ;
#210 = CARTESIAN_POINT ( 'NONE',  ( 8.728703347107864943E-16, 1.385153783108149532E-16, 0.2500000000000008882 ) ) ;
#211 = APPROVAL_PERSON_ORGANIZATION ( #117, #206, #97 ) ;
#212 = DIRECTION ( 'NONE',  ( 3.664998382197393967E-31, 1.000000000000000000, 1.049697256412017316E-16 ) ) ;
#213 = DIRECTION ( 'NONE',  ( 1.934495434060022522E-30, -1.000000000000000000, 5.540615132432578405E-16 ) ) ;
#214 = DIRECTION ( 'NONE',  ( -3.491481338843133355E-15, 1.049697256412017316E-16, -1.000000000000000000 ) ) ;
#215 = FACE_OUTER_BOUND ( 'NONE', #118, .T. ) ;
#216 = CARTESIAN_POINT ( 'NONE',  ( 3.746077850197698715E-14, 1.703999999999998627, 10.72919338998650751 ) ) ;
#217 =( NAMED_UNIT ( * ) PLANE_ANGLE_UNIT ( ) SI_UNIT ( $, .RADIAN. ) );
#218 = LOCAL_TIME ( 14, 1, 45.00000000000000000, #132 ) ;
#219 = PERSON_AND_ORGANIZATION_ROLE ( 'creator' ) ;
#220 = EDGE_CURVE ( 'NONE', #90, #90, #46, .T. ) ;
#221 = CONICAL_SURFACE ( 'NONE', #241, 1.559662432702592527, 0.5235987755982971503 ) ;
#222 = CIRCLE ( 'NONE', #28, 1.499999999999992673 ) ;
#223 = ORIENTED_EDGE ( 'NONE', *, *, #13, .F. ) ;
#224 = MANIFOLD_SOLID_BREP ( 'Corps-Déplacer/Copier1[2]', #34 ) ;
#225 = AXIS2_PLACEMENT_3D ( 'NONE', #3, #23, #180 ) ;
#226 = ORGANIZATION ( 'UNSPECIFIED', 'UNSPECIFIED', '' ) ;
#227 = MANIFOLD_SOLID_BREP ( 'Corps-Déplacer/Copier1[1]', #88 ) ;
#228 = DIRECTION ( 'NONE',  ( 3.491481338843133355E-15, 5.540615132432578405E-16, 1.000000000000000000 ) ) ;
#229 = DIRECTION ( 'NONE',  ( -3.491481338843133355E-15, -5.540615132432578405E-16, -1.000000000000000000 ) ) ;
#230 = DIRECTION ( 'NONE',  ( 0.0000000000000000000, 1.000000000000000000, 0.0000000000000000000 ) ) ;
#231 = CARTESIAN_POINT ( 'NONE',  ( 2.433562493173664138E-13, -7.316389877191761450E-15, 69.70000000000001705 ) ) ;
#232 = DIRECTION ( 'NONE',  ( -3.491481338843133355E-15, 1.049697256412017316E-16, -1.000000000000000000 ) ) ;
#233 = AXIS2_PLACEMENT_3D ( 'NONE', #49, #232, #212 ) ;
#234 = CC_DESIGN_APPROVAL ( #206, ( #140 ) ) ;
#235 = VERTEX_POINT ( 'NONE', #86 ) ;
#236 = COORDINATED_UNIVERSAL_TIME_OFFSET ( 1, 0, .AHEAD. ) ;
#237 = PERSON_AND_ORGANIZATION_ROLE ( 'design_owner' ) ;
#238 = AXIS2_PLACEMENT_3D ( 'NONE', #101, #45, #121 ) ;
#239 = EDGE_CURVE ( 'NONE', #129, #129, #72, .T. ) ;
#240 = DATE_TIME_ROLE ( 'creation_date' ) ;
#241 = AXIS2_PLACEMENT_3D ( 'NONE', #142, #81, #213 ) ;
#242 = DESIGN_CONTEXT ( 'detailed design', #138, 'design' ) ;
#243 = ORIENTED_EDGE ( 'NONE', *, *, #220, .F. ) ;
ENDSEC;
END-ISO-10303-21;
