ISO-10303-21;
HEADER;
FILE_DESCRIPTION (( 'STEP AP203' ),
    '1' );
FILE_NAME ('321243.step',
    '2021-11-26T13:01:44',
    ( '' ),
    ( '' ),
    'SwSTEP 2.0',
    'SolidWorks 2019',
    '' );
FILE_SCHEMA (( 'CONFIG_CONTROL_DESIGN' ));
ENDSEC;

DATA;
#1 = PERSON_AND_ORGANIZATION_ROLE ( 'design_owner' ) ;
#2 = AXIS2_PLACEMENT_3D ( 'NONE', #165, #150, #48 ) ;
#3 = CIRCLE ( 'NONE', #198, 1.698999999999998511 ) ;
#4 = DATE_AND_TIME ( #209, #153 ) ;
#5 = ORIENTED_EDGE ( 'NONE', *, *, #226, .T. ) ;
#6 = FACE_OUTER_BOUND ( 'NONE', #125, .T. ) ;
#7 = APPROVAL_PERSON_ORGANIZATION ( #243, #241, #175 ) ;
#8 = PLANE ( 'NONE',  #120 ) ;
#9 = APPROVAL ( #114, 'UNSPECIFIED' ) ;
#10 = FACE_BOUND ( 'NONE', #26, .T. ) ;
#11 = ADVANCED_BREP_SHAPE_REPRESENTATION ( '321243', ( #218, #142, #238 ), #133 ) ;
#12 = EDGE_LOOP ( 'NONE', ( #89 ) ) ;
#13 = CIRCLE ( 'NONE', #155, 1.499999999999997558 ) ;
#14 = AXIS2_PLACEMENT_3D ( 'NONE', #205, #166, #237 ) ;
#15 = FACE_BOUND ( 'NONE', #160, .T. ) ;
#16 = CARTESIAN_POINT ( 'NONE',  ( 3.749101561733976850E-14, 1.698999999999998733, 10.73785364402435327 ) ) ;
#17 = VERTEX_POINT ( 'NONE', #240 ) ;
#18 = AXIS2_PLACEMENT_3D ( 'NONE', #181, #214, #27 ) ;
#19 = LOCAL_TIME ( 14, 1, 44.00000000000000000, #135 ) ;
#20 = FACE_OUTER_BOUND ( 'NONE', #101, .T. ) ;
#21 = COORDINATED_UNIVERSAL_TIME_OFFSET ( 1, 0, .AHEAD. ) ;
#22 = ADVANCED_FACE ( 'NONE', ( #30 ), #72, .T. ) ;
#23 = PERSON_AND_ORGANIZATION_ROLE ( 'classification_officer' ) ;
#24 = DATE_AND_TIME ( #195, #19 ) ;
#25 = APPROVAL_STATUS ( 'not_yet_approved' ) ;
#26 = EDGE_LOOP ( 'NONE', ( #171 ) ) ;
#27 = DIRECTION ( 'NONE',  ( 0.0000000000000000000, 1.000000000000000000, 0.0000000000000000000 ) ) ;
#28 = DIRECTION ( 'NONE',  ( 0.0000000000000000000, 1.000000000000000000, 0.0000000000000000000 ) ) ;
#29 = APPLICATION_CONTEXT ( 'configuration controlled 3d designs of mechanical parts and assemblies' ) ;
#30 = FACE_OUTER_BOUND ( 'NONE', #122, .T. ) ;
#31 = PRODUCT ( '321243', '321243', '', ( #221 ) ) ;
#32 = PLANE ( 'NONE',  #85 ) ;
#33 = CARTESIAN_POINT ( 'NONE',  ( -1.892735826383161356E-31, 1.554662432702592634, -5.421010862427522170E-17 ) ) ;
#34 = AXIS2_PLACEMENT_3D ( 'NONE', #148, #90, #219 ) ;
#35 = FACE_OUTER_BOUND ( 'NONE', #51, .T. ) ;
#36 =( NAMED_UNIT ( * ) PLANE_ANGLE_UNIT ( ) SI_UNIT ( $, .RADIAN. ) );
#37 = VERTEX_POINT ( 'NONE', #187 ) ;
#38 = PERSON_AND_ORGANIZATION ( #44, #188 ) ;
#39 = APPROVAL_DATE_TIME ( #4, #241 ) ;
#40 = APPLICATION_CONTEXT ( 'configuration controlled 3d designs of mechanical parts and assemblies' ) ;
#41 = CALENDAR_DATE ( 2021, 26, 11 ) ;
#42 = PERSON_AND_ORGANIZATION_ROLE ( 'creator' ) ;
#43 = CIRCLE ( 'NONE', #183, 1.499999999999992673 ) ;
#44 = PERSON ( 'UNSPECIFIED', 'UNSPECIFIED', 'UNSPECIFIED', ('UNSPECIFIED'), ('UNSPECIFIED'), ('UNSPECIFIED') ) ;
#45 = DIRECTION ( 'NONE',  ( 3.491481338843133355E-15, -1.049697256412017316E-16, 1.000000000000000000 ) ) ;
#46 = PRODUCT_DEFINITION_SHAPE ( 'NONE', 'NONE',  #200 ) ;
#47 = APPROVAL ( #25, 'UNSPECIFIED' ) ;
#48 = DIRECTION ( 'NONE',  ( 3.664998382197393967E-31, 1.000000000000000000, 1.049697256412017316E-16 ) ) ;
#49 = EDGE_LOOP ( 'NONE', ( #203 ) ) ;
#50 = AXIS2_PLACEMENT_3D ( 'NONE', #96, #98, #110 ) ;
#51 = EDGE_LOOP ( 'NONE', ( #103 ) ) ;
#52 = DIRECTION ( 'NONE',  ( 0.0000000000000000000, 0.0000000000000000000, 1.000000000000000000 ) ) ;
#53 = FACE_OUTER_BOUND ( 'NONE', #109, .T. ) ;
#54 = LOCAL_TIME ( 14, 1, 44.00000000000000000, #196 ) ;
#55 = CARTESIAN_POINT ( 'NONE',  ( 3.749101561733977481E-14, 1.698999999999998733, 10.73785364402435505 ) ) ;
#56 = FACE_BOUND ( 'NONE', #216, .T. ) ;
#57 = ADVANCED_FACE ( 'NONE', ( #10, #71 ), #115, .T. ) ;
#58 = PLANE ( 'NONE',  #212 ) ;
#59 = CIRCLE ( 'NONE', #18, 1.199999999999997513 ) ;
#60 = PERSON_AND_ORGANIZATION ( #44, #188 ) ;
#61 = CC_DESIGN_PERSON_AND_ORGANIZATION_ASSIGNMENT ( #86, #23, ( #179 ) ) ;
#62 = ORIENTED_EDGE ( 'NONE', *, *, #137, .T. ) ;
#63 = CONICAL_SURFACE ( 'NONE', #121, 1.698999999999999844, 0.5235987755982959291 ) ;
#64 = DATE_AND_TIME ( #41, #106 ) ;
#65 = PERSON_AND_ORGANIZATION_ROLE ( 'creator' ) ;
#66 = CC_DESIGN_DATE_AND_TIME_ASSIGNMENT ( #64, #172, ( #200 ) ) ;
#67 = CLOSED_SHELL ( 'NONE', ( #75, #57, #81, #217, #151 ) ) ;
#68 = EDGE_LOOP ( 'NONE', ( #139 ) ) ;
#69 = EDGE_CURVE ( 'NONE', #94, #94, #164, .T. ) ;
#70 = CARTESIAN_POINT ( 'NONE',  ( 2.433562493173664138E-13, -7.316389877191761450E-15, 69.70000000000001705 ) ) ;
#71 = FACE_OUTER_BOUND ( 'NONE', #49, .T. ) ;
#72 = PLANE ( 'NONE',  #128 ) ;
#73 = CC_DESIGN_SECURITY_CLASSIFICATION ( #179, ( #140 ) ) ;
#74 = CYLINDRICAL_SURFACE ( 'NONE', #2, 1.499999999999995337 ) ;
#75 = ADVANCED_FACE ( 'NONE', ( #204 ), #32, .T. ) ;
#76 =( NAMED_UNIT ( * ) SI_UNIT ( $, .STERADIAN. ) SOLID_ANGLE_UNIT ( ) );
#77 = CARTESIAN_POINT ( 'NONE',  ( 0.0000000000000000000, 0.0000000000000000000, 0.0000000000000000000 ) ) ;
#78 = AXIS2_PLACEMENT_3D ( 'NONE', #213, #199, #177 ) ;
#79 = EDGE_CURVE ( 'NONE', #17, #17, #59, .T. ) ;
#80 = DIRECTION ( 'NONE',  ( 0.0000000000000000000, 1.000000000000000000, 0.0000000000000000000 ) ) ;
#81 = ADVANCED_FACE ( 'NONE', ( #104, #180 ), #74, .T. ) ;
#82 = UNCERTAINTY_MEASURE_WITH_UNIT (LENGTH_MEASURE( 1.000000000000000082E-05 ), #235, 'distance_accuracy_value', 'NONE');
#83 = COORDINATED_UNIVERSAL_TIME_OFFSET ( 1, 0, .AHEAD. ) ;
#84 = APPROVAL_ROLE ( '' ) ;
#85 = AXIS2_PLACEMENT_3D ( 'NONE', #146, #45, #201 ) ;
#86 = PERSON_AND_ORGANIZATION ( #44, #188 ) ;
#87 = EDGE_LOOP ( 'NONE', ( #117 ) ) ;
#88 = CARTESIAN_POINT ( 'NONE',  ( 3.749101561733976850E-14, 5.942511975058038902E-15, 10.73785364402435327 ) ) ;
#89 = ORIENTED_EDGE ( 'NONE', *, *, #137, .F. ) ;
#90 = DIRECTION ( 'NONE',  ( -3.491481338843133355E-15, 1.049697256412017316E-16, -1.000000000000000000 ) ) ;
#91 = ADVANCED_FACE ( 'NONE', ( #6 ), #8, .T. ) ;
#92 = LOCAL_TIME ( 14, 1, 44.00000000000000000, #83 ) ;
#93 = DIRECTION ( 'NONE',  ( -3.491481338843133355E-15, 1.049697256412017316E-16, -1.000000000000000000 ) ) ;
#94 = VERTEX_POINT ( 'NONE', #55 ) ;
#95 = EDGE_CURVE ( 'NONE', #130, #130, #113, .T. ) ;
#96 = CARTESIAN_POINT ( 'NONE',  ( 2.814715948008051825E-30, 4.461464420742076147E-31, 8.061666882460495694E-16 ) ) ;
#97 = CARTESIAN_POINT ( 'NONE',  ( 3.749101561733977481E-14, -1.127149550988614751E-15, 10.73785364402435505 ) ) ;
#98 = DIRECTION ( 'NONE',  ( 3.491481338843133355E-15, 5.534171140770821970E-16, 1.000000000000000000 ) ) ;
#99 = APPROVAL_PERSON_ORGANIZATION ( #60, #9, #100 ) ;
#100 = APPROVAL_ROLE ( '' ) ;
#101 = EDGE_LOOP ( 'NONE', ( #233 ) ) ;
#102 = DATE_TIME_ROLE ( 'classification_date' ) ;
#103 = ORIENTED_EDGE ( 'NONE', *, *, #169, .F. ) ;
#104 = FACE_OUTER_BOUND ( 'NONE', #87, .T. ) ;
#105 = CC_DESIGN_PERSON_AND_ORGANIZATION_ASSIGNMENT ( #119, #42, ( #140 ) ) ;
#106 = LOCAL_TIME ( 14, 1, 44.00000000000000000, #157 ) ;
#107 = CARTESIAN_POINT ( 'NONE',  ( 3.869445280877825183E-14, -1.163330317703974635E-15, 11.08253175473057617 ) ) ;
#108 = DIRECTION ( 'NONE',  ( 3.491481338843133355E-15, 5.534171140770821970E-16, 1.000000000000000000 ) ) ;
#109 = EDGE_LOOP ( 'NONE', ( #234 ) ) ;
#110 = DIRECTION ( 'NONE',  ( 1.932245526396553933E-30, -1.000000000000000000, 5.534171140770821970E-16 ) ) ;
#111 = VERTEX_POINT ( 'NONE', #184 ) ;
#112 = CYLINDRICAL_SURFACE ( 'NONE', #220, 1.698999999999995625 ) ;
#113 = CIRCLE ( 'NONE', #197, 1.554662432702592634 ) ;
#114 = APPROVAL_STATUS ( 'not_yet_approved' ) ;
#115 = CONICAL_SURFACE ( 'NONE', #34, 1.499999999999997558, 0.7853981633974573828 ) ;
#116 = CC_DESIGN_APPROVAL ( #47, ( #140 ) ) ;
#117 = ORIENTED_EDGE ( 'NONE', *, *, #134, .T. ) ;
#118 = SECURITY_CLASSIFICATION_LEVEL ( 'unclassified' ) ;
#119 = PERSON_AND_ORGANIZATION ( #44, #188 ) ;
#120 = AXIS2_PLACEMENT_3D ( 'NONE', #88, #108, #124 ) ;
#121 = AXIS2_PLACEMENT_3D ( 'NONE', #97, #93, #80 ) ;
#122 = EDGE_LOOP ( 'NONE', ( #123 ) ) ;
#123 = ORIENTED_EDGE ( 'NONE', *, *, #95, .T. ) ;
#124 = DIRECTION ( 'NONE',  ( 1.932245526396553933E-30, -1.000000000000000000, 5.534171140770821970E-16 ) ) ;
#125 = EDGE_LOOP ( 'NONE', ( #182 ) ) ;
#126 = DIRECTION ( 'NONE',  ( -1.932245526396553933E-30, 1.000000000000000000, -5.534171140770821970E-16 ) ) ;
#127 = APPLICATION_PROTOCOL_DEFINITION ( 'international standard', 'config_control_design', 1994, #29 ) ;
#128 = AXIS2_PLACEMENT_3D ( 'NONE', #149, #147, #126 ) ;
#129 = FACE_OUTER_BOUND ( 'NONE', #194, .T. ) ;
#130 = VERTEX_POINT ( 'NONE', #33 ) ;
#131 = CARTESIAN_POINT ( 'NONE',  ( 8.728703347107864943E-16, 1.383542785192710423E-16, 0.2500000000000008882 ) ) ;
#132 = FACE_OUTER_BOUND ( 'NONE', #176, .T. ) ;
#133 =( GEOMETRIC_REPRESENTATION_CONTEXT ( 3 ) GLOBAL_UNCERTAINTY_ASSIGNED_CONTEXT ( ( #82 ) ) GLOBAL_UNIT_ASSIGNED_CONTEXT ( ( #235, #36, #76 ) ) REPRESENTATION_CONTEXT ( 'NONE', 'WORKASPACE' ) );
#134 = EDGE_CURVE ( 'NONE', #208, #208, #13, .T. ) ;
#135 = COORDINATED_UNIVERSAL_TIME_OFFSET ( 1, 0, .AHEAD. ) ;
#136 = DATE_AND_TIME ( #138, #92 ) ;
#137 = EDGE_CURVE ( 'NONE', #37, #37, #43, .T. ) ;
#138 = CALENDAR_DATE ( 2021, 26, 11 ) ;
#139 = ORIENTED_EDGE ( 'NONE', *, *, #79, .F. ) ;
#140 = PRODUCT_DEFINITION_FORMATION_WITH_SPECIFIED_SOURCE ( 'ANY', '', #31, .NOT_KNOWN. ) ;
#141 = SHAPE_DEFINITION_REPRESENTATION ( #46, #11 ) ;
#142 = MANIFOLD_SOLID_BREP ( 'Corps-Déplacer/Copier1[2]', #190 ) ;
#143 = ORIENTED_EDGE ( 'NONE', *, *, #226, .F. ) ;
#144 = DESIGN_CONTEXT ( 'detailed design', #40, 'design' ) ;
#145 = APPROVAL_DATE_TIME ( #227, #47 ) ;
#146 = CARTESIAN_POINT ( 'NONE',  ( 2.444036937190193601E-13, -7.347880794884121511E-15, 70.00000000000000000 ) ) ;
#147 = DIRECTION ( 'NONE',  ( -3.491481338843133355E-15, -5.534171140770821970E-16, -1.000000000000000000 ) ) ;
#148 = CARTESIAN_POINT ( 'NONE',  ( 2.433562493173664138E-13, -7.316389877191761450E-15, 69.70000000000001705 ) ) ;
#149 = CARTESIAN_POINT ( 'NONE',  ( -1.596631556642342201E-30, 1.554662432702592634, -4.572934527473000557E-16 ) ) ;
#150 = DIRECTION ( 'NONE',  ( -3.491481338843133355E-15, 1.049697256412017316E-16, -1.000000000000000000 ) ) ;
#151 = ADVANCED_FACE ( 'NONE', ( #129 ), #58, .T. ) ;
#152 = DIRECTION ( 'NONE',  ( 1.000000000000000000, 0.0000000000000000000, 0.0000000000000000000 ) ) ;
#153 = LOCAL_TIME ( 14, 1, 44.00000000000000000, #21 ) ;
#154 = VERTEX_POINT ( 'NONE', #206 ) ;
#155 = AXIS2_PLACEMENT_3D ( 'NONE', #70, #202, #28 ) ;
#156 = CONICAL_SURFACE ( 'NONE', #50, 1.554662432702592634, 0.5235987755982971503 ) ;
#157 = COORDINATED_UNIVERSAL_TIME_OFFSET ( 1, 0, .AHEAD. ) ;
#158 = APPROVAL_STATUS ( 'not_yet_approved' ) ;
#159 = APPLICATION_PROTOCOL_DEFINITION ( 'international standard', 'config_control_design', 1994, #40 ) ;
#160 = EDGE_LOOP ( 'NONE', ( #62 ) ) ;
#161 = DIRECTION ( 'NONE',  ( -3.491481338843133355E-15, -5.534171140770821970E-16, -1.000000000000000000 ) ) ;
#162 = CC_DESIGN_PERSON_AND_ORGANIZATION_ASSIGNMENT ( #223, #225, ( #140 ) ) ;
#163 = CARTESIAN_POINT ( 'NONE',  ( 2.814715948008051825E-30, 4.461464420742076147E-31, 8.061666882460495694E-16 ) ) ;
#164 = CIRCLE ( 'NONE', #78, 1.698999999999992738 ) ;
#165 = CARTESIAN_POINT ( 'NONE',  ( 0.0000000000000000000, 0.0000000000000000000, 0.0000000000000000000 ) ) ;
#166 = DIRECTION ( 'NONE',  ( -3.491481338843133355E-15, 1.049697256412017316E-16, -1.000000000000000000 ) ) ;
#167 = DIRECTION ( 'NONE',  ( -3.491481338843133355E-15, -5.534171140770821970E-16, -1.000000000000000000 ) ) ;
#168 = DIRECTION ( 'NONE',  ( -1.927063511158507078E-30, 1.000000000000000000, -5.424201569232957585E-16 ) ) ;
#169 = EDGE_CURVE ( 'NONE', #154, #154, #3, .T. ) ;
#170 = PERSON_AND_ORGANIZATION ( #44, #188 ) ;
#171 = ORIENTED_EDGE ( 'NONE', *, *, #79, .T. ) ;
#172 = DATE_TIME_ROLE ( 'creation_date' ) ;
#173 = CIRCLE ( 'NONE', #14, 1.698999999999999844 ) ;
#174 = PRODUCT_RELATED_PRODUCT_CATEGORY ( 'detail', '', ( #31 ) ) ;
#175 = APPROVAL_ROLE ( '' ) ;
#176 = EDGE_LOOP ( 'NONE', ( #143 ) ) ;
#177 = DIRECTION ( 'NONE',  ( -3.627413668063084511E-30, 1.000000000000000000, -1.021026177737971967E-15 ) ) ;
#178 = ADVANCED_FACE ( 'NONE', ( #20, #35 ), #112, .T. ) ;
#179 = SECURITY_CLASSIFICATION ( '', '', #118 ) ;
#180 = FACE_OUTER_BOUND ( 'NONE', #12, .T. ) ;
#181 = CARTESIAN_POINT ( 'NONE',  ( 2.444036937190193601E-13, -7.347880794884121511E-15, 70.00000000000000000 ) ) ;
#182 = ORIENTED_EDGE ( 'NONE', *, *, #69, .F. ) ;
#183 = AXIS2_PLACEMENT_3D ( 'NONE', #107, #232, #215 ) ;
#184 = CARTESIAN_POINT ( 'NONE',  ( 3.749101561733977481E-14, 1.698999999999998733, 10.73785364402435505 ) ) ;
#185 = DIRECTION ( 'NONE',  ( -3.491481338843133355E-15, -5.534171140770821970E-16, -1.000000000000000000 ) ) ;
#186 = CARTESIAN_POINT ( 'NONE',  ( 0.0000000000000000000, 0.0000000000000000000, 0.0000000000000000000 ) ) ;
#187 = CARTESIAN_POINT ( 'NONE',  ( 3.869445280877825183E-14, 1.499999999999991562, 11.08253175473057617 ) ) ;
#188 = ORGANIZATION ( 'UNSPECIFIED', 'UNSPECIFIED', '' ) ;
#189 = DIRECTION ( 'NONE',  ( 3.664998382197393967E-31, 1.000000000000000000, 1.049697256412017316E-16 ) ) ;
#190 = CLOSED_SHELL ( 'NONE', ( #91, #178, #191, #22 ) ) ;
#191 = ADVANCED_FACE ( 'NONE', ( #53, #56 ), #156, .T. ) ;
#192 = CC_DESIGN_APPROVAL ( #9, ( #200 ) ) ;
#193 = CALENDAR_DATE ( 2021, 26, 11 ) ;
#194 = EDGE_LOOP ( 'NONE', ( #5 ) ) ;
#195 = CALENDAR_DATE ( 2021, 26, 11 ) ;
#196 = COORDINATED_UNIVERSAL_TIME_OFFSET ( 1, 0, .AHEAD. ) ;
#197 = AXIS2_PLACEMENT_3D ( 'NONE', #163, #161, #231 ) ;
#198 = AXIS2_PLACEMENT_3D ( 'NONE', #131, #167, #168 ) ;
#199 = DIRECTION ( 'NONE',  ( -3.491481338843133355E-15, -5.534171140770821970E-16, -1.000000000000000000 ) ) ;
#200 = PRODUCT_DEFINITION ( 'UNKNOWN', '', #140, #144 ) ;
#201 = DIRECTION ( 'NONE',  ( -3.664998382197393967E-31, -1.000000000000000000, -1.049697256412017316E-16 ) ) ;
#202 = DIRECTION ( 'NONE',  ( -3.491481338843133355E-15, 1.049697256412017316E-16, -1.000000000000000000 ) ) ;
#203 = ORIENTED_EDGE ( 'NONE', *, *, #134, .F. ) ;
#204 = FACE_OUTER_BOUND ( 'NONE', #68, .T. ) ;
#205 = CARTESIAN_POINT ( 'NONE',  ( 3.749101561733977481E-14, -1.127149550988614751E-15, 10.73785364402435505 ) ) ;
#206 = CARTESIAN_POINT ( 'NONE',  ( 8.728703347107831416E-16, 1.698999999999998733, 0.2499999999999999445 ) ) ;
#207 = CARTESIAN_POINT ( 'NONE',  ( 2.433562493173664138E-13, 1.499999999999990230, 69.70000000000001705 ) ) ;
#208 = VERTEX_POINT ( 'NONE', #207 ) ;
#209 = CALENDAR_DATE ( 2021, 26, 11 ) ;
#210 = PERSON_AND_ORGANIZATION ( #44, #188 ) ;
#211 = APPROVAL_DATE_TIME ( #136, #9 ) ;
#212 = AXIS2_PLACEMENT_3D ( 'NONE', #16, #222, #189 ) ;
#213 = CARTESIAN_POINT ( 'NONE',  ( 3.749101561733978112E-14, 5.942511975058040479E-15, 10.73785364402435683 ) ) ;
#214 = DIRECTION ( 'NONE',  ( -3.491481338843133355E-15, 1.049697256412017316E-16, -1.000000000000000000 ) ) ;
#215 = DIRECTION ( 'NONE',  ( 0.0000000000000000000, 1.000000000000000000, 0.0000000000000000000 ) ) ;
#216 = EDGE_LOOP ( 'NONE', ( #229 ) ) ;
#217 = ADVANCED_FACE ( 'NONE', ( #15, #132 ), #63, .T. ) ;
#218 = MANIFOLD_SOLID_BREP ( 'Corps-Déplacer/Copier1[1]', #67 ) ;
#219 = DIRECTION ( 'NONE',  ( 0.0000000000000000000, 1.000000000000000000, 0.0000000000000000000 ) ) ;
#220 = AXIS2_PLACEMENT_3D ( 'NONE', #186, #185, #239 ) ;
#221 = MECHANICAL_CONTEXT ( 'NONE', #29, 'mechanical' ) ;
#222 = DIRECTION ( 'NONE',  ( -3.491481338843133355E-15, 1.049697256412017316E-16, -1.000000000000000000 ) ) ;
#223 = PERSON_AND_ORGANIZATION ( #44, #188 ) ;
#224 = CC_DESIGN_PERSON_AND_ORGANIZATION_ASSIGNMENT ( #170, #1, ( #31 ) ) ;
#225 = PERSON_AND_ORGANIZATION_ROLE ( 'design_supplier' ) ;
#226 = EDGE_CURVE ( 'NONE', #111, #111, #173, .T. ) ;
#227 = DATE_AND_TIME ( #193, #54 ) ;
#228 = CC_DESIGN_APPROVAL ( #241, ( #179 ) ) ;
#229 = ORIENTED_EDGE ( 'NONE', *, *, #95, .F. ) ;
#230 = APPROVAL_PERSON_ORGANIZATION ( #210, #47, #84 ) ;
#231 = DIRECTION ( 'NONE',  ( -1.932245526396553933E-30, 1.000000000000000000, -5.534171140770821970E-16 ) ) ;
#232 = DIRECTION ( 'NONE',  ( -3.491481338843133355E-15, 1.049697256412017316E-16, -1.000000000000000000 ) ) ;
#233 = ORIENTED_EDGE ( 'NONE', *, *, #69, .T. ) ;
#234 = ORIENTED_EDGE ( 'NONE', *, *, #169, .T. ) ;
#235 =( LENGTH_UNIT ( ) NAMED_UNIT ( * ) SI_UNIT ( .MILLI., .METRE. ) );
#236 = CC_DESIGN_PERSON_AND_ORGANIZATION_ASSIGNMENT ( #38, #65, ( #200 ) ) ;
#237 = DIRECTION ( 'NONE',  ( 0.0000000000000000000, 1.000000000000000000, 0.0000000000000000000 ) ) ;
#238 = AXIS2_PLACEMENT_3D ( 'NONE', #77, #52, #152 ) ;
#239 = DIRECTION ( 'NONE',  ( -1.932245526396553933E-30, 1.000000000000000000, -5.534171140770821970E-16 ) ) ;
#240 = CARTESIAN_POINT ( 'NONE',  ( 2.444036937190193601E-13, 1.199999999999990186, 70.00000000000000000 ) ) ;
#241 = APPROVAL ( #158, 'UNSPECIFIED' ) ;
#242 = CC_DESIGN_DATE_AND_TIME_ASSIGNMENT ( #24, #102, ( #179 ) ) ;
#243 = PERSON_AND_ORGANIZATION ( #44, #188 ) ;
ENDSEC;
END-ISO-10303-21;
