ISO-10303-21;
HEADER;
FILE_DESCRIPTION (( 'STEP AP203' ),
    '1' );
FILE_NAME ('321242.step',
    '2021-11-26T13:01:44',
    ( '' ),
    ( '' ),
    'SwSTEP 2.0',
    'SolidWorks 2019',
    '' );
FILE_SCHEMA (( 'CONFIG_CONTROL_DESIGN' ));
ENDSEC;

DATA;
#1 = EDGE_LOOP ( 'NONE', ( #70 ) ) ;
#2 = ADVANCED_FACE ( 'NONE', ( #226, #191 ), #68, .T. ) ;
#3 = CARTESIAN_POINT ( 'NONE',  ( 2.444036937190193601E-13, 1.199999999999990186, 70.00000000000000000 ) ) ;
#4 = PERSON ( 'UNSPECIFIED', 'UNSPECIFIED', 'UNSPECIFIED', ('UNSPECIFIED'), ('UNSPECIFIED'), ('UNSPECIFIED') ) ;
#5 = FACE_BOUND ( 'NONE', #182, .T. ) ;
#6 = PERSON_AND_ORGANIZATION ( #4, #241 ) ;
#7 = EDGE_LOOP ( 'NONE', ( #17 ) ) ;
#8 = CC_DESIGN_PERSON_AND_ORGANIZATION_ASSIGNMENT ( #201, #128, ( #122 ) ) ;
#9 = CALENDAR_DATE ( 2021, 26, 11 ) ;
#10 = APPLICATION_CONTEXT ( 'configuration controlled 3d designs of mechanical parts and assemblies' ) ;
#11 = AXIS2_PLACEMENT_3D ( 'NONE', #172, #56, #135 ) ;
#12 = AXIS2_PLACEMENT_3D ( 'NONE', #65, #234, #18 ) ;
#13 = PLANE ( 'NONE',  #73 ) ;
#14 = DIRECTION ( 'NONE',  ( 0.0000000000000000000, 1.000000000000000000, 0.0000000000000000000 ) ) ;
#15 = CARTESIAN_POINT ( 'NONE',  ( 2.444036937190193601E-13, -7.347880794884121511E-15, 70.00000000000000000 ) ) ;
#16 = DIRECTION ( 'NONE',  ( -3.491481338843133355E-15, 1.049697256412017316E-16, -1.000000000000000000 ) ) ;
#17 = ORIENTED_EDGE ( 'NONE', *, *, #202, .T. ) ;
#18 = DIRECTION ( 'NONE',  ( 1.000000000000000000, 0.0000000000000000000, 0.0000000000000000000 ) ) ;
#19 = CIRCLE ( 'NONE', #190, 1.499999999999997558 ) ;
#20 = DIRECTION ( 'NONE',  ( -1.932751419987192410E-30, 1.000000000000000000, -5.440211609283822972E-16 ) ) ;
#21 = CARTESIAN_POINT ( 'NONE',  ( 2.433562493173664138E-13, 1.499999999999990230, 69.70000000000001705 ) ) ;
#22 = DIRECTION ( 'NONE',  ( 3.491481338843133355E-15, 5.527737535101268457E-16, 1.000000000000000000 ) ) ;
#23 = PERSON_AND_ORGANIZATION ( #4, #241 ) ;
#24 = ADVANCED_FACE ( 'NONE', ( #239, #242 ), #133, .T. ) ;
#25 = COORDINATED_UNIVERSAL_TIME_OFFSET ( 1, 0, .AHEAD. ) ;
#26 = EDGE_LOOP ( 'NONE', ( #173 ) ) ;
#27 = PERSON_AND_ORGANIZATION ( #4, #241 ) ;
#28 = AXIS2_PLACEMENT_3D ( 'NONE', #240, #116, #188 ) ;
#29 = DATE_AND_TIME ( #71, #185 ) ;
#30 = EDGE_LOOP ( 'NONE', ( #47 ) ) ;
#31 = AXIS2_PLACEMENT_3D ( 'NONE', #179, #158, #180 ) ;
#32 = DIRECTION ( 'NONE',  ( 3.491481338843133355E-15, -1.049697256412017316E-16, 1.000000000000000000 ) ) ;
#33 = ADVANCED_FACE ( 'NONE', ( #192 ), #52, .T. ) ;
#34 = CARTESIAN_POINT ( 'NONE',  ( 2.801573742456023417E-30, 4.435471030946292571E-31, 8.024026109743712166E-16 ) ) ;
#35 = FACE_OUTER_BOUND ( 'NONE', #1, .T. ) ;
#36 = AXIS2_PLACEMENT_3D ( 'NONE', #15, #76, #14 ) ;
#37 = EDGE_LOOP ( 'NONE', ( #165 ) ) ;
#38 = DIRECTION ( 'NONE',  ( -1.929999244982882034E-30, 1.000000000000000000, -5.527737535101268457E-16 ) ) ;
#39 = CC_DESIGN_APPROVAL ( #53, ( #122 ) ) ;
#40 = VERTEX_POINT ( 'NONE', #3 ) ;
#41 = VERTEX_POINT ( 'NONE', #215 ) ;
#42 = DIRECTION ( 'NONE',  ( -3.491481338843133355E-15, -5.527737535101268457E-16, -1.000000000000000000 ) ) ;
#43 = ADVANCED_FACE ( 'NONE', ( #186 ), #13, .T. ) ;
#44 = APPROVAL_PERSON_ORGANIZATION ( #88, #233, #203 ) ;
#45 = COORDINATED_UNIVERSAL_TIME_OFFSET ( 1, 0, .AHEAD. ) ;
#46 = PERSON_AND_ORGANIZATION_ROLE ( 'creator' ) ;
#47 = ORIENTED_EDGE ( 'NONE', *, *, #51, .F. ) ;
#48 = APPROVAL_ROLE ( '' ) ;
#49 = CONICAL_SURFACE ( 'NONE', #93, 1.499999999999997558, 0.7853981633974573828 ) ;
#50 = CC_DESIGN_SECURITY_CLASSIFICATION ( #216, ( #122 ) ) ;
#51 = EDGE_CURVE ( 'NONE', #40, #40, #61, .T. ) ;
#52 = PLANE ( 'NONE',  #160 ) ;
#53 = APPROVAL ( #167, 'UNSPECIFIED' ) ;
#54 = DIRECTION ( 'NONE',  ( -1.929999244982882034E-30, 1.000000000000000000, -5.527737535101268457E-16 ) ) ;
#55 = LOCAL_TIME ( 14, 1, 44.00000000000000000, #238 ) ;
#56 = DIRECTION ( 'NONE',  ( -3.491481338843133355E-15, 1.049697256412017316E-16, -1.000000000000000000 ) ) ;
#57 = DESIGN_CONTEXT ( 'detailed design', #217, 'design' ) ;
#58 = ORIENTED_EDGE ( 'NONE', *, *, #101, .F. ) ;
#59 = EDGE_CURVE ( 'NONE', #41, #41, #161, .T. ) ;
#60 = FACE_OUTER_BOUND ( 'NONE', #89, .T. ) ;
#61 = CIRCLE ( 'NONE', #36, 1.199999999999997513 ) ;
#62 = VERTEX_POINT ( 'NONE', #21 ) ;
#63 = VERTEX_POINT ( 'NONE', #156 ) ;
#64 = LOCAL_TIME ( 14, 1, 44.00000000000000000, #66 ) ;
#65 = CARTESIAN_POINT ( 'NONE',  ( 0.0000000000000000000, 0.0000000000000000000, 0.0000000000000000000 ) ) ;
#66 = COORDINATED_UNIVERSAL_TIME_OFFSET ( 1, 0, .AHEAD. ) ;
#67 = PRODUCT_DEFINITION_SHAPE ( 'NONE', 'NONE',  #146 ) ;
#68 = CONICAL_SURFACE ( 'NONE', #77, 1.693999999999999728, 0.5235987755982945968 ) ;
#69 = DATE_TIME_ROLE ( 'classification_date' ) ;
#70 = ORIENTED_EDGE ( 'NONE', *, *, #94, .F. ) ;
#71 = CALENDAR_DATE ( 2021, 26, 11 ) ;
#72 = APPROVAL ( #223, 'UNSPECIFIED' ) ;
#73 = AXIS2_PLACEMENT_3D ( 'NONE', #98, #155, #230 ) ;
#74 = ADVANCED_FACE ( 'NONE', ( #95, #35 ), #229, .T. ) ;
#75 = EDGE_LOOP ( 'NONE', ( #206 ) ) ;
#76 = DIRECTION ( 'NONE',  ( -3.491481338843133355E-15, 1.049697256412017316E-16, -1.000000000000000000 ) ) ;
#77 = AXIS2_PLACEMENT_3D ( 'NONE', #115, #16, #151 ) ;
#78 = DIRECTION ( 'NONE',  ( -3.491481338843133355E-15, -5.527737535101268457E-16, -1.000000000000000000 ) ) ;
#79 = UNCERTAINTY_MEASURE_WITH_UNIT (LENGTH_MEASURE( 1.000000000000000082E-05 ), #104, 'distance_accuracy_value', 'NONE');
#80 = MANIFOLD_SOLID_BREP ( 'Corps-Déplacer/Copier1[1]', #169 ) ;
#81 = CARTESIAN_POINT ( 'NONE',  ( 3.869445280877825183E-14, 1.499999999999991562, 11.08253175473057617 ) ) ;
#82 = CLOSED_SHELL ( 'NONE', ( #120, #24, #159, #136 ) ) ;
#83 = DIRECTION ( 'NONE',  ( -3.491481338843133355E-15, 1.049697256412017316E-16, -1.000000000000000000 ) ) ;
#84 = FACE_OUTER_BOUND ( 'NONE', #150, .T. ) ;
#85 = CARTESIAN_POINT ( 'NONE',  ( 8.728703347107831416E-16, 1.693999999999998618, 0.2499999999999999445 ) ) ;
#86 = AXIS2_PLACEMENT_3D ( 'NONE', #174, #96, #208 ) ;
#87 = VERTEX_POINT ( 'NONE', #85 ) ;
#88 = PERSON_AND_ORGANIZATION ( #4, #241 ) ;
#89 = EDGE_LOOP ( 'NONE', ( #189 ) ) ;
#90 = CC_DESIGN_APPROVAL ( #233, ( #146 ) ) ;
#91 = CALENDAR_DATE ( 2021, 26, 11 ) ;
#92 = CC_DESIGN_DATE_AND_TIME_ASSIGNMENT ( #113, #69, ( #216 ) ) ;
#93 = AXIS2_PLACEMENT_3D ( 'NONE', #194, #83, #196 ) ;
#94 = EDGE_CURVE ( 'NONE', #124, #124, #102, .T. ) ;
#95 = FACE_OUTER_BOUND ( 'NONE', #138, .T. ) ;
#96 = DIRECTION ( 'NONE',  ( -3.491481338843133355E-15, 1.049697256412017316E-16, -1.000000000000000000 ) ) ;
#97 = CONICAL_SURFACE ( 'NONE', #106, 1.549662432702592518, 0.5235987755982971503 ) ;
#98 = CARTESIAN_POINT ( 'NONE',  ( 3.752125273270255617E-14, 1.693999999999998618, 10.74651389806220081 ) ) ;
#99 = DIRECTION ( 'NONE',  ( -3.664998382197393967E-31, -1.000000000000000000, -1.049697256412017316E-16 ) ) ;
#100 = FACE_OUTER_BOUND ( 'NONE', #7, .T. ) ;
#101 = EDGE_CURVE ( 'NONE', #63, #63, #110, .T. ) ;
#102 = CIRCLE ( 'NONE', #86, 1.499999999999992673 ) ;
#103 = DIRECTION ( 'NONE',  ( 1.929999244982882034E-30, -1.000000000000000000, 5.527737535101268457E-16 ) ) ;
#104 =( LENGTH_UNIT ( ) NAMED_UNIT ( * ) SI_UNIT ( .MILLI., .METRE. ) );
#105 = DIRECTION ( 'NONE',  ( 0.0000000000000000000, 1.000000000000000000, 0.0000000000000000000 ) ) ;
#106 = AXIS2_PLACEMENT_3D ( 'NONE', #219, #141, #103 ) ;
#107 = CARTESIAN_POINT ( 'NONE',  ( -1.590060453866327998E-30, 1.549662432702592518, -4.554114141114607807E-16 ) ) ;
#108 = SECURITY_CLASSIFICATION_LEVEL ( 'unclassified' ) ;
#109 = APPROVAL_DATE_TIME ( #29, #53 ) ;
#110 = CIRCLE ( 'NONE', #221, 1.549662432702592518 ) ;
#111 = PERSON_AND_ORGANIZATION_ROLE ( 'design_owner' ) ;
#112 = ORIENTED_EDGE ( 'NONE', *, *, #59, .T. ) ;
#113 = DATE_AND_TIME ( #181, #142 ) ;
#114 = CIRCLE ( 'NONE', #31, 1.693999999999999728 ) ;
#115 = CARTESIAN_POINT ( 'NONE',  ( 3.752125273270254986E-14, -1.128058615478950278E-15, 10.74651389806219903 ) ) ;
#116 = DIRECTION ( 'NONE',  ( -3.491481338843133355E-15, -5.527737535101268457E-16, -1.000000000000000000 ) ) ;
#117 = EDGE_LOOP ( 'NONE', ( #153 ) ) ;
#118 = EDGE_LOOP ( 'NONE', ( #176 ) ) ;
#119 = CARTESIAN_POINT ( 'NONE',  ( 3.752125273270255617E-14, 5.940390824580587236E-15, 10.74651389806220081 ) ) ;
#120 = ADVANCED_FACE ( 'NONE', ( #60 ), #212, .T. ) ;
#121 = CARTESIAN_POINT ( 'NONE',  ( 2.433562493173664138E-13, -7.316389877191761450E-15, 69.70000000000001705 ) ) ;
#122 = PRODUCT_DEFINITION_FORMATION_WITH_SPECIFIED_SOURCE ( 'ANY', '', #193, .NOT_KNOWN. ) ;
#123 = CARTESIAN_POINT ( 'NONE',  ( 3.752125273270254986E-14, 1.693999999999998618, 10.74651389806219903 ) ) ;
#124 = VERTEX_POINT ( 'NONE', #81 ) ;
#125 =( NAMED_UNIT ( * ) SI_UNIT ( $, .STERADIAN. ) SOLID_ANGLE_UNIT ( ) );
#126 =( GEOMETRIC_REPRESENTATION_CONTEXT ( 3 ) GLOBAL_UNCERTAINTY_ASSIGNED_CONTEXT ( ( #79 ) ) GLOBAL_UNIT_ASSIGNED_CONTEXT ( ( #104, #163, #125 ) ) REPRESENTATION_CONTEXT ( 'NONE', 'WORKASPACE' ) );
#127 = APPROVAL_DATE_TIME ( #131, #72 ) ;
#128 = PERSON_AND_ORGANIZATION_ROLE ( 'design_supplier' ) ;
#129 = PRODUCT_RELATED_PRODUCT_CATEGORY ( 'detail', '', ( #193 ) ) ;
#130 = APPROVAL_PERSON_ORGANIZATION ( #168, #72, #164 ) ;
#131 = DATE_AND_TIME ( #144, #64 ) ;
#132 = ADVANCED_FACE ( 'NONE', ( #218, #139 ), #49, .T. ) ;
#133 = CYLINDRICAL_SURFACE ( 'NONE', #177, 1.693999999999995731 ) ;
#134 = CARTESIAN_POINT ( 'NONE',  ( 2.444036937190193601E-13, -7.347880794884121511E-15, 70.00000000000000000 ) ) ;
#135 = DIRECTION ( 'NONE',  ( 3.664998382197393967E-31, 1.000000000000000000, 1.049697256412017316E-16 ) ) ;
#136 = ADVANCED_FACE ( 'NONE', ( #84 ), #213, .T. ) ;
#137 = EDGE_LOOP ( 'NONE', ( #112 ) ) ;
#138 = EDGE_LOOP ( 'NONE', ( #209 ) ) ;
#139 = FACE_OUTER_BOUND ( 'NONE', #26, .T. ) ;
#140 = MECHANICAL_CONTEXT ( 'NONE', #10, 'mechanical' ) ;
#141 = DIRECTION ( 'NONE',  ( 3.491481338843133355E-15, 5.527737535101268457E-16, 1.000000000000000000 ) ) ;
#142 = LOCAL_TIME ( 14, 1, 44.00000000000000000, #45 ) ;
#143 = DIRECTION ( 'NONE',  ( -3.491481338843133355E-15, -5.527737535101268457E-16, -1.000000000000000000 ) ) ;
#144 = CALENDAR_DATE ( 2021, 26, 11 ) ;
#145 = AXIS2_PLACEMENT_3D ( 'NONE', #107, #143, #38 ) ;
#146 = PRODUCT_DEFINITION ( 'UNKNOWN', '', #122, #57 ) ;
#147 = PERSON_AND_ORGANIZATION_ROLE ( 'classification_officer' ) ;
#148 = COORDINATED_UNIVERSAL_TIME_OFFSET ( 1, 0, .AHEAD. ) ;
#149 = DATE_TIME_ROLE ( 'creation_date' ) ;
#150 = EDGE_LOOP ( 'NONE', ( #227 ) ) ;
#151 = DIRECTION ( 'NONE',  ( 0.0000000000000000000, 1.000000000000000000, 0.0000000000000000000 ) ) ;
#152 = APPROVAL_PERSON_ORGANIZATION ( #23, #53, #48 ) ;
#153 = ORIENTED_EDGE ( 'NONE', *, *, #195, .T. ) ;
#154 = DIRECTION ( 'NONE',  ( -1.929999244982882034E-30, 1.000000000000000000, -5.527737535101268457E-16 ) ) ;
#155 = DIRECTION ( 'NONE',  ( -3.491481338843133355E-15, 1.049697256412017316E-16, -1.000000000000000000 ) ) ;
#156 = CARTESIAN_POINT ( 'NONE',  ( -1.892735826383164860E-31, 1.549662432702592518, -5.421010862427522170E-17 ) ) ;
#157 = APPLICATION_PROTOCOL_DEFINITION ( 'international standard', 'config_control_design', 1994, #10 ) ;
#158 = DIRECTION ( 'NONE',  ( -3.491481338843133355E-15, 1.049697256412017316E-16, -1.000000000000000000 ) ) ;
#159 = ADVANCED_FACE ( 'NONE', ( #100, #5 ), #97, .T. ) ;
#160 = AXIS2_PLACEMENT_3D ( 'NONE', #134, #32, #99 ) ;
#161 = CIRCLE ( 'NONE', #28, 1.693999999999992845 ) ;
#162 = MANIFOLD_SOLID_BREP ( 'Corps-Déplacer/Copier1[2]', #82 ) ;
#163 =( NAMED_UNIT ( * ) PLANE_ANGLE_UNIT ( ) SI_UNIT ( $, .RADIAN. ) );
#164 = APPROVAL_ROLE ( '' ) ;
#165 = ORIENTED_EDGE ( 'NONE', *, *, #51, .T. ) ;
#166 = AXIS2_PLACEMENT_3D ( 'NONE', #178, #42, #20 ) ;
#167 = APPROVAL_STATUS ( 'not_yet_approved' ) ;
#168 = PERSON_AND_ORGANIZATION ( #4, #241 ) ;
#169 = CLOSED_SHELL ( 'NONE', ( #33, #132, #74, #2, #43 ) ) ;
#170 = ORIENTED_EDGE ( 'NONE', *, *, #202, .F. ) ;
#171 = CC_DESIGN_PERSON_AND_ORGANIZATION_ASSIGNMENT ( #183, #46, ( #122 ) ) ;
#172 = CARTESIAN_POINT ( 'NONE',  ( 0.0000000000000000000, 0.0000000000000000000, 0.0000000000000000000 ) ) ;
#173 = ORIENTED_EDGE ( 'NONE', *, *, #175, .F. ) ;
#174 = CARTESIAN_POINT ( 'NONE',  ( 3.869445280877825183E-14, -1.163330317703974635E-15, 11.08253175473057617 ) ) ;
#175 = EDGE_CURVE ( 'NONE', #62, #62, #19, .T. ) ;
#176 = ORIENTED_EDGE ( 'NONE', *, *, #195, .F. ) ;
#177 = AXIS2_PLACEMENT_3D ( 'NONE', #205, #78, #54 ) ;
#178 = CARTESIAN_POINT ( 'NONE',  ( 8.728703347107864943E-16, 1.381934383775322045E-16, 0.2500000000000008882 ) ) ;
#179 = CARTESIAN_POINT ( 'NONE',  ( 3.752125273270254986E-14, -1.128058615478950278E-15, 10.74651389806219903 ) ) ;
#180 = DIRECTION ( 'NONE',  ( 0.0000000000000000000, 1.000000000000000000, 0.0000000000000000000 ) ) ;
#181 = CALENDAR_DATE ( 2021, 26, 11 ) ;
#182 = EDGE_LOOP ( 'NONE', ( #58 ) ) ;
#183 = PERSON_AND_ORGANIZATION ( #4, #241 ) ;
#184 = SHAPE_DEFINITION_REPRESENTATION ( #67, #207 ) ;
#185 = LOCAL_TIME ( 14, 1, 44.00000000000000000, #25 ) ;
#186 = FACE_OUTER_BOUND ( 'NONE', #117, .T. ) ;
#187 = CC_DESIGN_PERSON_AND_ORGANIZATION_ASSIGNMENT ( #6, #200, ( #146 ) ) ;
#188 = DIRECTION ( 'NONE',  ( -3.638120319975903672E-30, 1.000000000000000000, -1.024039832335781841E-15 ) ) ;
#189 = ORIENTED_EDGE ( 'NONE', *, *, #59, .F. ) ;
#190 = AXIS2_PLACEMENT_3D ( 'NONE', #121, #232, #105 ) ;
#191 = FACE_OUTER_BOUND ( 'NONE', #118, .T. ) ;
#192 = FACE_OUTER_BOUND ( 'NONE', #30, .T. ) ;
#193 = PRODUCT ( '321242', '321242', '', ( #140 ) ) ;
#194 = CARTESIAN_POINT ( 'NONE',  ( 2.433562493173664138E-13, -7.316389877191761450E-15, 69.70000000000001705 ) ) ;
#195 = EDGE_CURVE ( 'NONE', #198, #198, #114, .T. ) ;
#196 = DIRECTION ( 'NONE',  ( 0.0000000000000000000, 1.000000000000000000, 0.0000000000000000000 ) ) ;
#197 = DIRECTION ( 'NONE',  ( 1.929999244982882034E-30, -1.000000000000000000, 5.527737535101268457E-16 ) ) ;
#198 = VERTEX_POINT ( 'NONE', #123 ) ;
#199 = CIRCLE ( 'NONE', #166, 1.693999999999998396 ) ;
#200 = PERSON_AND_ORGANIZATION_ROLE ( 'creator' ) ;
#201 = PERSON_AND_ORGANIZATION ( #4, #241 ) ;
#202 = EDGE_CURVE ( 'NONE', #87, #87, #199, .T. ) ;
#203 = APPROVAL_ROLE ( '' ) ;
#204 = PERSON_AND_ORGANIZATION ( #4, #241 ) ;
#205 = CARTESIAN_POINT ( 'NONE',  ( 0.0000000000000000000, 0.0000000000000000000, 0.0000000000000000000 ) ) ;
#206 = ORIENTED_EDGE ( 'NONE', *, *, #94, .T. ) ;
#207 = ADVANCED_BREP_SHAPE_REPRESENTATION ( '321242', ( #80, #162, #12 ), #126 ) ;
#208 = DIRECTION ( 'NONE',  ( 0.0000000000000000000, 1.000000000000000000, 0.0000000000000000000 ) ) ;
#209 = ORIENTED_EDGE ( 'NONE', *, *, #175, .T. ) ;
#210 = CC_DESIGN_PERSON_AND_ORGANIZATION_ASSIGNMENT ( #27, #147, ( #216 ) ) ;
#211 = AXIS2_PLACEMENT_3D ( 'NONE', #119, #22, #197 ) ;
#212 = PLANE ( 'NONE',  #211 ) ;
#213 = PLANE ( 'NONE',  #145 ) ;
#214 = CC_DESIGN_PERSON_AND_ORGANIZATION_ASSIGNMENT ( #204, #111, ( #193 ) ) ;
#215 = CARTESIAN_POINT ( 'NONE',  ( 3.752125273270254986E-14, 1.693999999999998618, 10.74651389806219903 ) ) ;
#216 = SECURITY_CLASSIFICATION ( '', '', #108 ) ;
#217 = APPLICATION_CONTEXT ( 'configuration controlled 3d designs of mechanical parts and assemblies' ) ;
#218 = FACE_BOUND ( 'NONE', #37, .T. ) ;
#219 = CARTESIAN_POINT ( 'NONE',  ( 2.801573742456023417E-30, 4.435471030946292571E-31, 8.024026109743712166E-16 ) ) ;
#220 = DATE_AND_TIME ( #91, #228 ) ;
#221 = AXIS2_PLACEMENT_3D ( 'NONE', #34, #231, #154 ) ;
#222 = APPROVAL_STATUS ( 'not_yet_approved' ) ;
#223 = APPROVAL_STATUS ( 'not_yet_approved' ) ;
#224 = CC_DESIGN_DATE_AND_TIME_ASSIGNMENT ( #220, #149, ( #146 ) ) ;
#225 = DATE_AND_TIME ( #9, #55 ) ;
#226 = FACE_BOUND ( 'NONE', #75, .T. ) ;
#227 = ORIENTED_EDGE ( 'NONE', *, *, #101, .T. ) ;
#228 = LOCAL_TIME ( 14, 1, 44.00000000000000000, #148 ) ;
#229 = CYLINDRICAL_SURFACE ( 'NONE', #11, 1.499999999999995337 ) ;
#230 = DIRECTION ( 'NONE',  ( 3.664998382197393967E-31, 1.000000000000000000, 1.049697256412017316E-16 ) ) ;
#231 = DIRECTION ( 'NONE',  ( -3.491481338843133355E-15, -5.527737535101268457E-16, -1.000000000000000000 ) ) ;
#232 = DIRECTION ( 'NONE',  ( -3.491481338843133355E-15, 1.049697256412017316E-16, -1.000000000000000000 ) ) ;
#233 = APPROVAL ( #222, 'UNSPECIFIED' ) ;
#234 = DIRECTION ( 'NONE',  ( 0.0000000000000000000, 0.0000000000000000000, 1.000000000000000000 ) ) ;
#235 = CC_DESIGN_APPROVAL ( #72, ( #216 ) ) ;
#236 = APPROVAL_DATE_TIME ( #225, #233 ) ;
#237 = APPLICATION_PROTOCOL_DEFINITION ( 'international standard', 'config_control_design', 1994, #217 ) ;
#238 = COORDINATED_UNIVERSAL_TIME_OFFSET ( 1, 0, .AHEAD. ) ;
#239 = FACE_OUTER_BOUND ( 'NONE', #137, .T. ) ;
#240 = CARTESIAN_POINT ( 'NONE',  ( 3.752125273270255617E-14, 5.940390824580587236E-15, 10.74651389806220081 ) ) ;
#241 = ORGANIZATION ( 'UNSPECIFIED', 'UNSPECIFIED', '' ) ;
#242 = FACE_OUTER_BOUND ( 'NONE', #243, .T. ) ;
#243 = EDGE_LOOP ( 'NONE', ( #170 ) ) ;
ENDSEC;
END-ISO-10303-21;
