ISO-10303-21;
HEADER;
FILE_DESCRIPTION (( 'STEP AP203' ),
    '1' );
FILE_NAME ('321241.step',
    '2021-11-26T13:01:43',
    ( '' ),
    ( '' ),
    'SwSTEP 2.0',
    'SolidWorks 2019',
    '' );
FILE_SCHEMA (( 'CONFIG_CONTROL_DESIGN' ));
ENDSEC;

DATA;
#1 = DIRECTION ( 'NONE',  ( -3.491481338843133355E-15, 1.049697256412017316E-16, -1.000000000000000000 ) ) ;
#2 = FACE_OUTER_BOUND ( 'NONE', #86, .T. ) ;
#3 = FACE_BOUND ( 'NONE', #141, .T. ) ;
#4 = APPROVAL_ROLE ( '' ) ;
#5 = ADVANCED_FACE ( 'NONE', ( #8 ), #161, .T. ) ;
#6 = PERSON_AND_ORGANIZATION ( #97, #171 ) ;
#7 = CC_DESIGN_SECURITY_CLASSIFICATION ( #215, ( #123 ) ) ;
#8 = FACE_OUTER_BOUND ( 'NONE', #217, .T. ) ;
#9 = DATE_TIME_ROLE ( 'creation_date' ) ;
#10 = LOCAL_TIME ( 14, 1, 43.00000000000000000, #162 ) ;
#11 = EDGE_LOOP ( 'NONE', ( #13 ) ) ;
#12 = ADVANCED_FACE ( 'NONE', ( #210 ), #190, .T. ) ;
#13 = ORIENTED_EDGE ( 'NONE', *, *, #134, .T. ) ;
#14 = ORIENTED_EDGE ( 'NONE', *, *, #101, .F. ) ;
#15 = FACE_BOUND ( 'NONE', #11, .T. ) ;
#16 = CLOSED_SHELL ( 'NONE', ( #12, #54, #142, #5 ) ) ;
#17 = LOCAL_TIME ( 14, 1, 43.00000000000000000, #43 ) ;
#18 = CARTESIAN_POINT ( 'NONE',  ( 2.444036937190193601E-13, -7.347880794884121511E-15, 70.00000000000000000 ) ) ;
#19 = FACE_OUTER_BOUND ( 'NONE', #108, .T. ) ;
#20 = VERTEX_POINT ( 'NONE', #148 ) ;
#21 = PRODUCT_RELATED_PRODUCT_CATEGORY ( 'detail', '', ( #208 ) ) ;
#22 = AXIS2_PLACEMENT_3D ( 'NONE', #29, #103, #237 ) ;
#23 =( GEOMETRIC_REPRESENTATION_CONTEXT ( 3 ) GLOBAL_UNCERTAINTY_ASSIGNED_CONTEXT ( ( #243 ) ) GLOBAL_UNIT_ASSIGNED_CONTEXT ( ( #46, #173, #136 ) ) REPRESENTATION_CONTEXT ( 'NONE', 'WORKASPACE' ) );
#24 = CARTESIAN_POINT ( 'NONE',  ( 3.869445280877825183E-14, -1.163330317703974635E-15, 11.08253175473057617 ) ) ;
#25 = CC_DESIGN_PERSON_AND_ORGANIZATION_ASSIGNMENT ( #191, #140, ( #123 ) ) ;
#26 = APPLICATION_PROTOCOL_DEFINITION ( 'international standard', 'config_control_design', 1994, #214 ) ;
#27 = CONICAL_SURFACE ( 'NONE', #31, 1.544662432702592625, 0.5235987755982971503 ) ;
#28 = DATE_AND_TIME ( #153, #88 ) ;
#29 = CARTESIAN_POINT ( 'NONE',  ( 3.755148984806532490E-14, 5.938269674103135569E-15, 10.75517415210004479 ) ) ;
#30 = CLOSED_SHELL ( 'NONE', ( #199, #85, #93, #74, #49 ) ) ;
#31 = AXIS2_PLACEMENT_3D ( 'NONE', #152, #56, #59 ) ;
#32 = CC_DESIGN_PERSON_AND_ORGANIZATION_ASSIGNMENT ( #207, #62, ( #208 ) ) ;
#33 = APPROVAL_DATE_TIME ( #47, #144 ) ;
#34 = EDGE_LOOP ( 'NONE', ( #221 ) ) ;
#35 = SHAPE_DEFINITION_REPRESENTATION ( #226, #67 ) ;
#36 = DIRECTION ( 'NONE',  ( -3.491481338843133355E-15, -5.521314290334976763E-16, -1.000000000000000000 ) ) ;
#37 = DIRECTION ( 'NONE',  ( -3.491481338843133355E-15, -5.521314290334976763E-16, -1.000000000000000000 ) ) ;
#38 = EDGE_CURVE ( 'NONE', #20, #20, #106, .T. ) ;
#39 = PLANE ( 'NONE',  #177 ) ;
#40 = FACE_OUTER_BOUND ( 'NONE', #197, .T. ) ;
#41 = AXIS2_PLACEMENT_3D ( 'NONE', #114, #73, #186 ) ;
#42 = FACE_OUTER_BOUND ( 'NONE', #196, .T. ) ;
#43 = COORDINATED_UNIVERSAL_TIME_OFFSET ( 1, 0, .AHEAD. ) ;
#44 = DIRECTION ( 'NONE',  ( 1.000000000000000000, 0.0000000000000000000, 0.0000000000000000000 ) ) ;
#45 = AXIS2_PLACEMENT_3D ( 'NONE', #81, #99, #44 ) ;
#46 =( LENGTH_UNIT ( ) NAMED_UNIT ( * ) SI_UNIT ( .MILLI., .METRE. ) );
#47 = DATE_AND_TIME ( #143, #10 ) ;
#48 = CONICAL_SURFACE ( 'NONE', #160, 1.499999999999997558, 0.7853981633974573828 ) ;
#49 = ADVANCED_FACE ( 'NONE', ( #2 ), #53, .T. ) ;
#50 = DIRECTION ( 'NONE',  ( -3.491481338843133355E-15, 1.049697256412017316E-16, -1.000000000000000000 ) ) ;
#51 = MANIFOLD_SOLID_BREP ( 'Corps-Déplacer/Copier1[1]', #30 ) ;
#52 = CARTESIAN_POINT ( 'NONE',  ( 3.755148984806531859E-14, -1.128967679969286199E-15, 10.75517415210004302 ) ) ;
#53 = PLANE ( 'NONE',  #203 ) ;
#54 = ADVANCED_FACE ( 'NONE', ( #181, #19 ), #204, .T. ) ;
#55 = APPLICATION_CONTEXT ( 'configuration controlled 3d designs of mechanical parts and assemblies' ) ;
#56 = DIRECTION ( 'NONE',  ( 3.491481338843133355E-15, 5.521314290334976763E-16, 1.000000000000000000 ) ) ;
#57 = CARTESIAN_POINT ( 'NONE',  ( 2.444036937190193601E-13, 1.199999999999990186, 70.00000000000000000 ) ) ;
#58 = CC_DESIGN_DATE_AND_TIME_ASSIGNMENT ( #209, #9, ( #118 ) ) ;
#59 = DIRECTION ( 'NONE',  ( 1.927756581059249100E-30, -1.000000000000000000, 5.521314290334975776E-16 ) ) ;
#60 = AXIS2_PLACEMENT_3D ( 'NONE', #198, #130, #110 ) ;
#61 = CALENDAR_DATE ( 2021, 26, 11 ) ;
#62 = PERSON_AND_ORGANIZATION_ROLE ( 'design_owner' ) ;
#63 = ORIENTED_EDGE ( 'NONE', *, *, #101, .T. ) ;
#64 = CC_DESIGN_PERSON_AND_ORGANIZATION_ASSIGNMENT ( #133, #206, ( #215 ) ) ;
#65 = AXIS2_PLACEMENT_3D ( 'NONE', #69, #179, #137 ) ;
#66 = CALENDAR_DATE ( 2021, 26, 11 ) ;
#67 = ADVANCED_BREP_SHAPE_REPRESENTATION ( '321241', ( #51, #212, #45 ), #23 ) ;
#68 = APPROVAL_STATUS ( 'not_yet_approved' ) ;
#69 = CARTESIAN_POINT ( 'NONE',  ( -1.583503376397863634E-30, 1.544662432702592625, -4.535333924833582655E-16 ) ) ;
#70 = ORIENTED_EDGE ( 'NONE', *, *, #109, .F. ) ;
#71 = AXIS2_PLACEMENT_3D ( 'NONE', #24, #1, #72 ) ;
#72 = DIRECTION ( 'NONE',  ( 0.0000000000000000000, 1.000000000000000000, 0.0000000000000000000 ) ) ;
#73 = DIRECTION ( 'NONE',  ( -3.491481338843133355E-15, 1.049697256412017316E-16, -1.000000000000000000 ) ) ;
#74 = ADVANCED_FACE ( 'NONE', ( #3, #40 ), #193, .T. ) ;
#75 = CARTESIAN_POINT ( 'NONE',  ( 3.755148984806532490E-14, 1.688999999999998725, 10.75517415210004479 ) ) ;
#76 = DIRECTION ( 'NONE',  ( -3.664998382197393967E-31, -1.000000000000000000, -1.049697256412017316E-16 ) ) ;
#77 = DIRECTION ( 'NONE',  ( -3.491481338843133355E-15, 1.049697256412017316E-16, -1.000000000000000000 ) ) ;
#78 = SECURITY_CLASSIFICATION_LEVEL ( 'unclassified' ) ;
#79 = LOCAL_TIME ( 14, 1, 43.00000000000000000, #188 ) ;
#80 = APPROVAL_DATE_TIME ( #28, #82 ) ;
#81 = CARTESIAN_POINT ( 'NONE',  ( 0.0000000000000000000, 0.0000000000000000000, 0.0000000000000000000 ) ) ;
#82 = APPROVAL ( #229, 'UNSPECIFIED' ) ;
#83 = APPROVAL_STATUS ( 'not_yet_approved' ) ;
#84 = AXIS2_PLACEMENT_3D ( 'NONE', #52, #91, #172 ) ;
#85 = ADVANCED_FACE ( 'NONE', ( #15, #166 ), #48, .T. ) ;
#86 = EDGE_LOOP ( 'NONE', ( #180 ) ) ;
#87 = ORIENTED_EDGE ( 'NONE', *, *, #38, .T. ) ;
#88 = LOCAL_TIME ( 14, 1, 43.00000000000000000, #104 ) ;
#89 = EDGE_LOOP ( 'NONE', ( #121 ) ) ;
#90 = ORIENTED_EDGE ( 'NONE', *, *, #232, .T. ) ;
#91 = DIRECTION ( 'NONE',  ( -3.491481338843133355E-15, 1.049697256412017316E-16, -1.000000000000000000 ) ) ;
#92 = APPROVAL_PERSON_ORGANIZATION ( #195, #144, #192 ) ;
#93 = ADVANCED_FACE ( 'NONE', ( #168, #183 ), #201, .T. ) ;
#94 = DIRECTION ( 'NONE',  ( 3.491481338843133355E-15, -1.049697256412017316E-16, 1.000000000000000000 ) ) ;
#95 = DIRECTION ( 'NONE',  ( -3.491481338843133355E-15, 1.049697256412017316E-16, -1.000000000000000000 ) ) ;
#96 = VERTEX_POINT ( 'NONE', #112 ) ;
#97 = PERSON ( 'UNSPECIFIED', 'UNSPECIFIED', 'UNSPECIFIED', ('UNSPECIFIED'), ('UNSPECIFIED'), ('UNSPECIFIED') ) ;
#98 = DIRECTION ( 'NONE',  ( 0.0000000000000000000, 1.000000000000000000, 0.0000000000000000000 ) ) ;
#99 = DIRECTION ( 'NONE',  ( 0.0000000000000000000, 0.0000000000000000000, 1.000000000000000000 ) ) ;
#100 = VERTEX_POINT ( 'NONE', #213 ) ;
#101 = EDGE_CURVE ( 'NONE', #96, #96, #220, .T. ) ;
#102 = APPLICATION_PROTOCOL_DEFINITION ( 'international standard', 'config_control_design', 1994, #55 ) ;
#103 = DIRECTION ( 'NONE',  ( 3.491481338843133355E-15, 5.521314290334976763E-16, 1.000000000000000000 ) ) ;
#104 = COORDINATED_UNIVERSAL_TIME_OFFSET ( 1, 0, .AHEAD. ) ;
#105 = EDGE_LOOP ( 'NONE', ( #124 ) ) ;
#106 = CIRCLE ( 'NONE', #189, 1.499999999999997558 ) ;
#107 = CC_DESIGN_PERSON_AND_ORGANIZATION_ASSIGNMENT ( #211, #122, ( #123 ) ) ;
#108 = EDGE_LOOP ( 'NONE', ( #234 ) ) ;
#109 = EDGE_CURVE ( 'NONE', #170, #170, #145, .T. ) ;
#110 = DIRECTION ( 'NONE',  ( -3.648890362367780794E-30, 1.000000000000000000, -1.027071329767208232E-15 ) ) ;
#111 = CC_DESIGN_APPROVAL ( #144, ( #215 ) ) ;
#112 = CARTESIAN_POINT ( 'NONE',  ( 3.869445280877825183E-14, 1.499999999999991562, 11.08253175473057617 ) ) ;
#113 = CARTESIAN_POINT ( 'NONE',  ( 2.788459587519096091E-30, 4.409578707269291973E-31, 7.986465677181660876E-16 ) ) ;
#114 = CARTESIAN_POINT ( 'NONE',  ( 3.755148984806531859E-14, -1.128967679969286199E-15, 10.75517415210004302 ) ) ;
#115 = APPROVAL_PERSON_ORGANIZATION ( #6, #82, #4 ) ;
#116 = COORDINATED_UNIVERSAL_TIME_OFFSET ( 1, 0, .AHEAD. ) ;
#117 = CARTESIAN_POINT ( 'NONE',  ( 3.755148984806531859E-14, 1.688999999999998725, 10.75517415210004302 ) ) ;
#118 = PRODUCT_DEFINITION ( 'UNKNOWN', '', #123, #129 ) ;
#119 = PERSON_AND_ORGANIZATION_ROLE ( 'creator' ) ;
#120 = CIRCLE ( 'NONE', #60, 1.688999999999992729 ) ;
#121 = ORIENTED_EDGE ( 'NONE', *, *, #169, .F. ) ;
#122 = PERSON_AND_ORGANIZATION_ROLE ( 'creator' ) ;
#123 = PRODUCT_DEFINITION_FORMATION_WITH_SPECIFIED_SOURCE ( 'ANY', '', #208, .NOT_KNOWN. ) ;
#124 = ORIENTED_EDGE ( 'NONE', *, *, #169, .T. ) ;
#125 = ORIENTED_EDGE ( 'NONE', *, *, #158, .T. ) ;
#126 = DIRECTION ( 'NONE',  ( -1.938473005007876606E-30, 1.000000000000000000, -5.456316439388274194E-16 ) ) ;
#127 = DIRECTION ( 'NONE',  ( -1.927756581059249100E-30, 1.000000000000000000, -5.521314290334975776E-16 ) ) ;
#128 = CARTESIAN_POINT ( 'NONE',  ( 8.728703347107864943E-16, 1.380328572583748875E-16, 0.2500000000000008882 ) ) ;
#129 = DESIGN_CONTEXT ( 'detailed design', #55, 'design' ) ;
#130 = DIRECTION ( 'NONE',  ( -3.491481338843133355E-15, -5.521314290334976763E-16, -1.000000000000000000 ) ) ;
#131 = DIRECTION ( 'NONE',  ( -3.491481338843133355E-15, 1.049697256412017316E-16, -1.000000000000000000 ) ) ;
#132 = LOCAL_TIME ( 14, 1, 43.00000000000000000, #116 ) ;
#133 = PERSON_AND_ORGANIZATION ( #97, #171 ) ;
#134 = EDGE_CURVE ( 'NONE', #227, #227, #154, .T. ) ;
#135 = DATE_TIME_ROLE ( 'classification_date' ) ;
#136 =( NAMED_UNIT ( * ) SI_UNIT ( $, .STERADIAN. ) SOLID_ANGLE_UNIT ( ) );
#137 = DIRECTION ( 'NONE',  ( -1.927756581059249100E-30, 1.000000000000000000, -5.521314290334976763E-16 ) ) ;
#138 = CC_DESIGN_APPROVAL ( #82, ( #118 ) ) ;
#139 = DATE_AND_TIME ( #66, #132 ) ;
#140 = PERSON_AND_ORGANIZATION_ROLE ( 'design_supplier' ) ;
#141 = EDGE_LOOP ( 'NONE', ( #63 ) ) ;
#142 = ADVANCED_FACE ( 'NONE', ( #42, #222 ), #27, .T. ) ;
#143 = CALENDAR_DATE ( 2021, 26, 11 ) ;
#144 = APPROVAL ( #68, 'UNSPECIFIED' ) ;
#145 = CIRCLE ( 'NONE', #41, 1.688999999999999835 ) ;
#146 = ORIENTED_EDGE ( 'NONE', *, *, #232, .F. ) ;
#147 = CARTESIAN_POINT ( 'NONE',  ( 2.444036937190193601E-13, -7.347880794884121511E-15, 70.00000000000000000 ) ) ;
#148 = CARTESIAN_POINT ( 'NONE',  ( 2.433562493173664138E-13, 1.499999999999990230, 69.70000000000001705 ) ) ;
#149 = DIRECTION ( 'NONE',  ( 3.664998382197393967E-31, 1.000000000000000000, 1.049697256412017316E-16 ) ) ;
#150 = CIRCLE ( 'NONE', #182, 1.544662432702592625 ) ;
#151 = CARTESIAN_POINT ( 'NONE',  ( 3.755148984806531859E-14, 1.688999999999998725, 10.75517415210004302 ) ) ;
#152 = CARTESIAN_POINT ( 'NONE',  ( 2.788459587519096091E-30, 4.409578707269291973E-31, 7.986465677181660876E-16 ) ) ;
#153 = CALENDAR_DATE ( 2021, 26, 11 ) ;
#154 = CIRCLE ( 'NONE', #165, 1.199999999999997513 ) ;
#155 = CALENDAR_DATE ( 2021, 26, 11 ) ;
#156 = VERTEX_POINT ( 'NONE', #117 ) ;
#157 = MECHANICAL_CONTEXT ( 'NONE', #214, 'mechanical' ) ;
#158 = EDGE_CURVE ( 'NONE', #202, #202, #205, .T. ) ;
#159 = DIRECTION ( 'NONE',  ( 0.0000000000000000000, 1.000000000000000000, 0.0000000000000000000 ) ) ;
#160 = AXIS2_PLACEMENT_3D ( 'NONE', #228, #95, #200 ) ;
#161 = PLANE ( 'NONE',  #65 ) ;
#162 = COORDINATED_UNIVERSAL_TIME_OFFSET ( 1, 0, .AHEAD. ) ;
#163 = EDGE_LOOP ( 'NONE', ( #146 ) ) ;
#164 = AXIS2_PLACEMENT_3D ( 'NONE', #185, #184, #127 ) ;
#165 = AXIS2_PLACEMENT_3D ( 'NONE', #147, #77, #98 ) ;
#166 = FACE_OUTER_BOUND ( 'NONE', #239, .T. ) ;
#167 = DIRECTION ( 'NONE',  ( -1.927756581059249100E-30, 1.000000000000000000, -5.521314290334975776E-16 ) ) ;
#168 = FACE_OUTER_BOUND ( 'NONE', #194, .T. ) ;
#169 = EDGE_CURVE ( 'NONE', #156, #156, #120, .T. ) ;
#170 = VERTEX_POINT ( 'NONE', #151 ) ;
#171 = ORGANIZATION ( 'UNSPECIFIED', 'UNSPECIFIED', '' ) ;
#172 = DIRECTION ( 'NONE',  ( 0.0000000000000000000, 1.000000000000000000, 0.0000000000000000000 ) ) ;
#173 =( NAMED_UNIT ( * ) PLANE_ANGLE_UNIT ( ) SI_UNIT ( $, .RADIAN. ) );
#174 = CC_DESIGN_APPROVAL ( #238, ( #123 ) ) ;
#175 = PERSON_AND_ORGANIZATION ( #97, #171 ) ;
#176 = PERSON_AND_ORGANIZATION ( #97, #171 ) ;
#177 = AXIS2_PLACEMENT_3D ( 'NONE', #18, #94, #76 ) ;
#178 = CARTESIAN_POINT ( 'NONE',  ( 2.433562493173664138E-13, -7.316389877191761450E-15, 69.70000000000001705 ) ) ;
#179 = DIRECTION ( 'NONE',  ( -3.491481338843133355E-15, -5.521314290334976763E-16, -1.000000000000000000 ) ) ;
#180 = ORIENTED_EDGE ( 'NONE', *, *, #109, .T. ) ;
#181 = FACE_OUTER_BOUND ( 'NONE', #105, .T. ) ;
#182 = AXIS2_PLACEMENT_3D ( 'NONE', #113, #36, #167 ) ;
#183 = FACE_OUTER_BOUND ( 'NONE', #216, .T. ) ;
#184 = DIRECTION ( 'NONE',  ( -3.491481338843133355E-15, -5.521314290334976763E-16, -1.000000000000000000 ) ) ;
#185 = CARTESIAN_POINT ( 'NONE',  ( 0.0000000000000000000, 0.0000000000000000000, 0.0000000000000000000 ) ) ;
#186 = DIRECTION ( 'NONE',  ( 0.0000000000000000000, 1.000000000000000000, 0.0000000000000000000 ) ) ;
#187 = CC_DESIGN_DATE_AND_TIME_ASSIGNMENT ( #231, #135, ( #215 ) ) ;
#188 = COORDINATED_UNIVERSAL_TIME_OFFSET ( 1, 0, .AHEAD. ) ;
#189 = AXIS2_PLACEMENT_3D ( 'NONE', #178, #50, #159 ) ;
#190 = PLANE ( 'NONE',  #22 ) ;
#191 = PERSON_AND_ORGANIZATION ( #97, #171 ) ;
#192 = APPROVAL_ROLE ( '' ) ;
#193 = CONICAL_SURFACE ( 'NONE', #84, 1.688999999999999835, 0.5235987755982954850 ) ;
#194 = EDGE_LOOP ( 'NONE', ( #87 ) ) ;
#195 = PERSON_AND_ORGANIZATION ( #97, #171 ) ;
#196 = EDGE_LOOP ( 'NONE', ( #125 ) ) ;
#197 = EDGE_LOOP ( 'NONE', ( #70 ) ) ;
#198 = CARTESIAN_POINT ( 'NONE',  ( 3.755148984806532490E-14, 5.938269674103134780E-15, 10.75517415210004479 ) ) ;
#199 = ADVANCED_FACE ( 'NONE', ( #223 ), #39, .T. ) ;
#200 = DIRECTION ( 'NONE',  ( 0.0000000000000000000, 1.000000000000000000, 0.0000000000000000000 ) ) ;
#201 = CYLINDRICAL_SURFACE ( 'NONE', #224, 1.499999999999995337 ) ;
#202 = VERTEX_POINT ( 'NONE', #233 ) ;
#203 = AXIS2_PLACEMENT_3D ( 'NONE', #75, #131, #149 ) ;
#204 = CYLINDRICAL_SURFACE ( 'NONE', #164, 1.688999999999995616 ) ;
#205 = CIRCLE ( 'NONE', #240, 1.688999999999998503 ) ;
#206 = PERSON_AND_ORGANIZATION_ROLE ( 'classification_officer' ) ;
#207 = PERSON_AND_ORGANIZATION ( #97, #171 ) ;
#208 = PRODUCT ( '321241', '321241', '', ( #157 ) ) ;
#209 = DATE_AND_TIME ( #61, #79 ) ;
#210 = FACE_OUTER_BOUND ( 'NONE', #89, .T. ) ;
#211 = PERSON_AND_ORGANIZATION ( #97, #171 ) ;
#212 = MANIFOLD_SOLID_BREP ( 'Corps-Déplacer/Copier1[2]', #16 ) ;
#213 = CARTESIAN_POINT ( 'NONE',  ( -1.892735826383161356E-31, 1.544662432702592625, -5.421010862427522170E-17 ) ) ;
#214 = APPLICATION_CONTEXT ( 'configuration controlled 3d designs of mechanical parts and assemblies' ) ;
#215 = SECURITY_CLASSIFICATION ( '', '', #78 ) ;
#216 = EDGE_LOOP ( 'NONE', ( #14 ) ) ;
#217 = EDGE_LOOP ( 'NONE', ( #90 ) ) ;
#218 = CC_DESIGN_PERSON_AND_ORGANIZATION_ASSIGNMENT ( #175, #119, ( #118 ) ) ;
#219 = ORIENTED_EDGE ( 'NONE', *, *, #38, .F. ) ;
#220 = CIRCLE ( 'NONE', #71, 1.499999999999992673 ) ;
#221 = ORIENTED_EDGE ( 'NONE', *, *, #134, .F. ) ;
#222 = FACE_BOUND ( 'NONE', #163, .T. ) ;
#223 = FACE_OUTER_BOUND ( 'NONE', #34, .T. ) ;
#224 = AXIS2_PLACEMENT_3D ( 'NONE', #225, #241, #242 ) ;
#225 = CARTESIAN_POINT ( 'NONE',  ( 0.0000000000000000000, 0.0000000000000000000, 0.0000000000000000000 ) ) ;
#226 = PRODUCT_DEFINITION_SHAPE ( 'NONE', 'NONE',  #118 ) ;
#227 = VERTEX_POINT ( 'NONE', #57 ) ;
#228 = CARTESIAN_POINT ( 'NONE',  ( 2.433562493173664138E-13, -7.316389877191761450E-15, 69.70000000000001705 ) ) ;
#229 = APPROVAL_STATUS ( 'not_yet_approved' ) ;
#230 = APPROVAL_PERSON_ORGANIZATION ( #176, #238, #235 ) ;
#231 = DATE_AND_TIME ( #155, #17 ) ;
#232 = EDGE_CURVE ( 'NONE', #100, #100, #150, .T. ) ;
#233 = CARTESIAN_POINT ( 'NONE',  ( 8.728703347107831416E-16, 1.688999999999998725, 0.2499999999999999445 ) ) ;
#234 = ORIENTED_EDGE ( 'NONE', *, *, #158, .F. ) ;
#235 = APPROVAL_ROLE ( '' ) ;
#236 = APPROVAL_DATE_TIME ( #139, #238 ) ;
#237 = DIRECTION ( 'NONE',  ( 1.927756581059249100E-30, -1.000000000000000000, 5.521314290334976763E-16 ) ) ;
#238 = APPROVAL ( #83, 'UNSPECIFIED' ) ;
#239 = EDGE_LOOP ( 'NONE', ( #219 ) ) ;
#240 = AXIS2_PLACEMENT_3D ( 'NONE', #128, #37, #126 ) ;
#241 = DIRECTION ( 'NONE',  ( -3.491481338843133355E-15, 1.049697256412017316E-16, -1.000000000000000000 ) ) ;
#242 = DIRECTION ( 'NONE',  ( 3.664998382197393967E-31, 1.000000000000000000, 1.049697256412017316E-16 ) ) ;
#243 = UNCERTAINTY_MEASURE_WITH_UNIT (LENGTH_MEASURE( 1.000000000000000082E-05 ), #46, 'distance_accuracy_value', 'NONE');
ENDSEC;
END-ISO-10303-21;
