ISO-10303-21;
HEADER;
FILE_DESCRIPTION (( 'STEP AP203' ),
    '1' );
FILE_NAME ('321240.step',
    '2021-11-26T13:01:42',
    ( '' ),
    ( '' ),
    'SwSTEP 2.0',
    'SolidWorks 2019',
    '' );
FILE_SCHEMA (( 'CONFIG_CONTROL_DESIGN' ));
ENDSEC;

DATA;
#1 = AXIS2_PLACEMENT_3D ( 'NONE', #145, #50, #113 ) ;
#2 = APPLICATION_CONTEXT ( 'configuration controlled 3d designs of mechanical parts and assemblies' ) ;
#3 = DIRECTION ( 'NONE',  ( 3.491481338843133355E-15, 5.514901381463751611E-16, 1.000000000000000000 ) ) ;
#4 = CARTESIAN_POINT ( 'NONE',  ( 2.433562493173664138E-13, 1.499999999999990230, 69.70000000000001705 ) ) ;
#5 = PERSON_AND_ORGANIZATION ( #81, #187 ) ;
#6 = CLOSED_SHELL ( 'NONE', ( #119, #236, #171, #212, #12 ) ) ;
#7 = PERSON_AND_ORGANIZATION_ROLE ( 'creator' ) ;
#8 = EDGE_CURVE ( 'NONE', #242, #242, #151, .T. ) ;
#9 = DATE_TIME_ROLE ( 'creation_date' ) ;
#10 = AXIS2_PLACEMENT_3D ( 'NONE', #51, #148, #36 ) ;
#11 = COORDINATED_UNIVERSAL_TIME_OFFSET ( 1, 0, .AHEAD. ) ;
#12 = ADVANCED_FACE ( 'NONE', ( #157 ), #18, .T. ) ;
#13 = SHAPE_DEFINITION_REPRESENTATION ( #228, #192 ) ;
#14 = APPROVAL_DATE_TIME ( #103, #152 ) ;
#15 = ORIENTED_EDGE ( 'NONE', *, *, #241, .F. ) ;
#16 = LOCAL_TIME ( 14, 1, 42.00000000000000000, #105 ) ;
#17 = EDGE_LOOP ( 'NONE', ( #141 ) ) ;
#18 = PLANE ( 'NONE',  #69 ) ;
#19 = DIRECTION ( 'NONE',  ( -3.491481338843133355E-15, -5.514901381463751611E-16, -1.000000000000000000 ) ) ;
#20 = DIRECTION ( 'NONE',  ( -3.491481338843133355E-15, 1.049697256412017316E-16, -1.000000000000000000 ) ) ;
#21 = DIRECTION ( 'NONE',  ( -3.491481338843133355E-15, 1.049697256412017316E-16, -1.000000000000000000 ) ) ;
#22 = PLANE ( 'NONE',  #1 ) ;
#23 = CARTESIAN_POINT ( 'NONE',  ( 0.0000000000000000000, 0.0000000000000000000, 0.0000000000000000000 ) ) ;
#24 = PERSON_AND_ORGANIZATION ( #81, #187 ) ;
#25 = DIRECTION ( 'NONE',  ( 1.000000000000000000, 0.0000000000000000000, 0.0000000000000000000 ) ) ;
#26 = DIRECTION ( 'NONE',  ( 0.0000000000000000000, 0.0000000000000000000, 1.000000000000000000 ) ) ;
#27 = APPROVAL_ROLE ( '' ) ;
#28 = CC_DESIGN_PERSON_AND_ORGANIZATION_ASSIGNMENT ( #208, #172, ( #82 ) ) ;
#29 = CALENDAR_DATE ( 2021, 26, 11 ) ;
#30 = DIRECTION ( 'NONE',  ( -3.491481338843133355E-15, 1.049697256412017316E-16, -1.000000000000000000 ) ) ;
#31 = DIRECTION ( 'NONE',  ( -3.491481338843133355E-15, -5.514901381463751611E-16, -1.000000000000000000 ) ) ;
#32 = CARTESIAN_POINT ( 'NONE',  ( 8.728703347107864943E-16, 1.378725345365942833E-16, 0.2500000000000008882 ) ) ;
#33 = FACE_OUTER_BOUND ( 'NONE', #46, .T. ) ;
#34 = CC_DESIGN_PERSON_AND_ORGANIZATION_ASSIGNMENT ( #75, #229, ( #238 ) ) ;
#35 = LOCAL_TIME ( 14, 1, 42.00000000000000000, #98 ) ;
#36 = DIRECTION ( 'NONE',  ( 0.0000000000000000000, 1.000000000000000000, 0.0000000000000000000 ) ) ;
#37 = CARTESIAN_POINT ( 'NONE',  ( -1.576960290383944128E-30, 1.539662432702592509, -4.516593781671059837E-16 ) ) ;
#38 = DATE_AND_TIME ( #207, #131 ) ;
#39 = CC_DESIGN_PERSON_AND_ORGANIZATION_ASSIGNMENT ( #191, #175, ( #174 ) ) ;
#40 = AXIS2_PLACEMENT_3D ( 'NONE', #220, #150, #72 ) ;
#41 = DATE_AND_TIME ( #209, #101 ) ;
#42 =( NAMED_UNIT ( * ) SI_UNIT ( $, .STERADIAN. ) SOLID_ANGLE_UNIT ( ) );
#43 = AXIS2_PLACEMENT_3D ( 'NONE', #32, #226, #184 ) ;
#44 = EDGE_LOOP ( 'NONE', ( #179 ) ) ;
#45 = DIRECTION ( 'NONE',  ( 0.0000000000000000000, 1.000000000000000000, 0.0000000000000000000 ) ) ;
#46 = EDGE_LOOP ( 'NONE', ( #85 ) ) ;
#47 = CARTESIAN_POINT ( 'NONE',  ( 3.758172696342809363E-14, -1.129876744459621529E-15, 10.76383440613788700 ) ) ;
#48 = CIRCLE ( 'NONE', #10, 1.683999999999999719 ) ;
#49 = DIRECTION ( 'NONE',  ( 3.664998382197393967E-31, 1.000000000000000000, 1.049697256412017316E-16 ) ) ;
#50 = DIRECTION ( 'NONE',  ( 3.491481338843133355E-15, -1.049697256412017316E-16, 1.000000000000000000 ) ) ;
#51 = CARTESIAN_POINT ( 'NONE',  ( 3.758172696342809363E-14, -1.129876744459621529E-15, 10.76383440613788700 ) ) ;
#52 = CONICAL_SURFACE ( 'NONE', #110, 1.539662432702592509, 0.5235987755982971503 ) ;
#53 = FACE_BOUND ( 'NONE', #218, .T. ) ;
#54 = VERTEX_POINT ( 'NONE', #233 ) ;
#55 = COORDINATED_UNIVERSAL_TIME_OFFSET ( 1, 0, .AHEAD. ) ;
#56 = VERTEX_POINT ( 'NONE', #170 ) ;
#57 =( LENGTH_UNIT ( ) NAMED_UNIT ( * ) SI_UNIT ( .MILLI., .METRE. ) );
#58 = PRODUCT_DEFINITION ( 'UNKNOWN', '', #174, #64 ) ;
#59 = PERSON_AND_ORGANIZATION ( #81, #187 ) ;
#60 = CC_DESIGN_APPROVAL ( #152, ( #238 ) ) ;
#61 = AXIS2_PLACEMENT_3D ( 'NONE', #224, #130, #49 ) ;
#62 = EDGE_LOOP ( 'NONE', ( #15 ) ) ;
#63 = DIRECTION ( 'NONE',  ( -3.659724359880749015E-30, 1.000000000000000000, -1.030120828964854266E-15 ) ) ;
#64 = DESIGN_CONTEXT ( 'detailed design', #2, 'design' ) ;
#65 = ORIENTED_EDGE ( 'NONE', *, *, #241, .T. ) ;
#66 = APPROVAL_PERSON_ORGANIZATION ( #173, #89, #137 ) ;
#67 = PLANE ( 'NONE',  #40 ) ;
#68 = VERTEX_POINT ( 'NONE', #4 ) ;
#69 = AXIS2_PLACEMENT_3D ( 'NONE', #142, #30, #180 ) ;
#70 = CARTESIAN_POINT ( 'NONE',  ( -1.892735826383161356E-31, 1.539662432702592509, -5.421010862427522170E-17 ) ) ;
#71 = APPLICATION_CONTEXT ( 'configuration controlled 3d designs of mechanical parts and assemblies' ) ;
#72 = DIRECTION ( 'NONE',  ( 1.925517525894090482E-30, -1.000000000000000000, 5.514901381463751611E-16 ) ) ;
#73 = VERTEX_POINT ( 'NONE', #243 ) ;
#74 = CLOSED_SHELL ( 'NONE', ( #149, #102, #123, #219 ) ) ;
#75 = PERSON_AND_ORGANIZATION ( #81, #187 ) ;
#76 = DATE_AND_TIME ( #156, #35 ) ;
#77 = COORDINATED_UNIVERSAL_TIME_OFFSET ( 1, 0, .AHEAD. ) ;
#78 = APPROVAL_STATUS ( 'not_yet_approved' ) ;
#79 = EDGE_CURVE ( 'NONE', #68, #68, #127, .T. ) ;
#80 = CALENDAR_DATE ( 2021, 26, 11 ) ;
#81 = PERSON ( 'UNSPECIFIED', 'UNSPECIFIED', 'UNSPECIFIED', ('UNSPECIFIED'), ('UNSPECIFIED'), ('UNSPECIFIED') ) ;
#82 = PRODUCT ( '321240', '321240', '', ( #232 ) ) ;
#83 = PRODUCT_RELATED_PRODUCT_CATEGORY ( 'detail', '', ( #82 ) ) ;
#84 = APPROVAL_PERSON_ORGANIZATION ( #122, #190, #99 ) ;
#85 = ORIENTED_EDGE ( 'NONE', *, *, #176, .F. ) ;
#86 = ORIENTED_EDGE ( 'NONE', *, *, #164, .F. ) ;
#87 = FACE_OUTER_BOUND ( 'NONE', #214, .T. ) ;
#88 = ORIENTED_EDGE ( 'NONE', *, *, #79, .F. ) ;
#89 = APPROVAL ( #78, 'UNSPECIFIED' ) ;
#90 = CIRCLE ( 'NONE', #227, 1.199999999999997513 ) ;
#91 = CARTESIAN_POINT ( 'NONE',  ( 2.775373415491256379E-30, 4.383787051327033055E-31, 7.948985390856616225E-16 ) ) ;
#92 = DIRECTION ( 'NONE',  ( 0.0000000000000000000, 1.000000000000000000, 0.0000000000000000000 ) ) ;
#93 = DIRECTION ( 'NONE',  ( 0.0000000000000000000, 1.000000000000000000, 0.0000000000000000000 ) ) ;
#94 = FACE_OUTER_BOUND ( 'NONE', #181, .T. ) ;
#95 = FACE_OUTER_BOUND ( 'NONE', #213, .T. ) ;
#96 = APPLICATION_PROTOCOL_DEFINITION ( 'international standard', 'config_control_design', 1994, #71 ) ;
#97 = AXIS2_PLACEMENT_3D ( 'NONE', #111, #166, #185 ) ;
#98 = COORDINATED_UNIVERSAL_TIME_OFFSET ( 1, 0, .AHEAD. ) ;
#99 = APPROVAL_ROLE ( '' ) ;
#100 = DATE_AND_TIME ( #80, #221 ) ;
#101 = LOCAL_TIME ( 14, 1, 42.00000000000000000, #77 ) ;
#102 = ADVANCED_FACE ( 'NONE', ( #87, #239 ), #116, .T. ) ;
#103 = DATE_AND_TIME ( #29, #16 ) ;
#104 = EDGE_LOOP ( 'NONE', ( #194 ) ) ;
#105 = COORDINATED_UNIVERSAL_TIME_OFFSET ( 1, 0, .AHEAD. ) ;
#106 = EDGE_LOOP ( 'NONE', ( #143 ) ) ;
#107 = EDGE_CURVE ( 'NONE', #73, #73, #163, .T. ) ;
#108 = ORIENTED_EDGE ( 'NONE', *, *, #176, .T. ) ;
#109 = EDGE_LOOP ( 'NONE', ( #124 ) ) ;
#110 = AXIS2_PLACEMENT_3D ( 'NONE', #112, #3, #206 ) ;
#111 = CARTESIAN_POINT ( 'NONE',  ( 2.433562493173664138E-13, -7.316389877191761450E-15, 69.70000000000001705 ) ) ;
#112 = CARTESIAN_POINT ( 'NONE',  ( 2.775373415491256379E-30, 4.383787051327033055E-31, 7.948985390856616225E-16 ) ) ;
#113 = DIRECTION ( 'NONE',  ( -3.664998382197393967E-31, -1.000000000000000000, -1.049697256412017316E-16 ) ) ;
#114 = CIRCLE ( 'NONE', #177, 1.539662432702592509 ) ;
#115 = VERTEX_POINT ( 'NONE', #70 ) ;
#116 = CYLINDRICAL_SURFACE ( 'NONE', #193, 1.683999999999995723 ) ;
#117 = DATE_TIME_ROLE ( 'classification_date' ) ;
#118 =( NAMED_UNIT ( * ) PLANE_ANGLE_UNIT ( ) SI_UNIT ( $, .RADIAN. ) );
#119 = ADVANCED_FACE ( 'NONE', ( #33 ), #22, .T. ) ;
#120 = APPROVAL_STATUS ( 'not_yet_approved' ) ;
#121 = APPROVAL_DATE_TIME ( #41, #89 ) ;
#122 = PERSON_AND_ORGANIZATION ( #81, #187 ) ;
#123 = ADVANCED_FACE ( 'NONE', ( #94, #168 ), #52, .T. ) ;
#124 = ORIENTED_EDGE ( 'NONE', *, *, #107, .F. ) ;
#125 = DIRECTION ( 'NONE',  ( -1.925517525894090482E-30, 1.000000000000000000, -5.514901381463751611E-16 ) ) ;
#126 = CC_DESIGN_PERSON_AND_ORGANIZATION_ASSIGNMENT ( #5, #7, ( #58 ) ) ;
#127 = CIRCLE ( 'NONE', #159, 1.499999999999997558 ) ;
#128 = CARTESIAN_POINT ( 'NONE',  ( 2.444036937190193601E-13, -7.347880794884121511E-15, 70.00000000000000000 ) ) ;
#129 = FACE_BOUND ( 'NONE', #160, .T. ) ;
#130 = DIRECTION ( 'NONE',  ( -3.491481338843133355E-15, 1.049697256412017316E-16, -1.000000000000000000 ) ) ;
#131 = LOCAL_TIME ( 14, 1, 42.00000000000000000, #55 ) ;
#132 = CC_DESIGN_APPROVAL ( #89, ( #174 ) ) ;
#133 = EDGE_CURVE ( 'NONE', #115, #115, #114, .T. ) ;
#134 = FACE_OUTER_BOUND ( 'NONE', #104, .T. ) ;
#135 = AXIS2_PLACEMENT_3D ( 'NONE', #37, #240, #125 ) ;
#136 = APPLICATION_PROTOCOL_DEFINITION ( 'international standard', 'config_control_design', 1994, #2 ) ;
#137 = APPROVAL_ROLE ( '' ) ;
#138 = APPROVAL_DATE_TIME ( #100, #190 ) ;
#139 = CONICAL_SURFACE ( 'NONE', #198, 1.683999999999999719, 0.5235987755982941527 ) ;
#140 = APPROVAL_STATUS ( 'not_yet_approved' ) ;
#141 = ORIENTED_EDGE ( 'NONE', *, *, #8, .F. ) ;
#142 = CARTESIAN_POINT ( 'NONE',  ( 3.758172696342809363E-14, 1.683999999999998609, 10.76383440613788700 ) ) ;
#143 = ORIENTED_EDGE ( 'NONE', *, *, #133, .F. ) ;
#144 = CC_DESIGN_APPROVAL ( #190, ( #58 ) ) ;
#145 = CARTESIAN_POINT ( 'NONE',  ( 2.444036937190193601E-13, -7.347880794884121511E-15, 70.00000000000000000 ) ) ;
#146 = FACE_OUTER_BOUND ( 'NONE', #44, .T. ) ;
#147 = CARTESIAN_POINT ( 'NONE',  ( 3.758172696342809363E-14, 1.683999999999998609, 10.76383440613788700 ) ) ;
#148 = DIRECTION ( 'NONE',  ( -3.491481338843133355E-15, 1.049697256412017316E-16, -1.000000000000000000 ) ) ;
#149 = ADVANCED_FACE ( 'NONE', ( #222 ), #67, .T. ) ;
#150 = DIRECTION ( 'NONE',  ( 3.491481338843133355E-15, 5.514901381463751611E-16, 1.000000000000000000 ) ) ;
#151 = CIRCLE ( 'NONE', #211, 1.683999999999992836 ) ;
#152 = APPROVAL ( #140, 'UNSPECIFIED' ) ;
#153 = CARTESIAN_POINT ( 'NONE',  ( 3.758172696342809363E-14, 1.683999999999998609, 10.76383440613788700 ) ) ;
#154 = MANIFOLD_SOLID_BREP ( 'Corps-Déplacer/Copier1[1]', #6 ) ;
#155 = MANIFOLD_SOLID_BREP ( 'Corps-Déplacer/Copier1[2]', #74 ) ;
#156 = CALENDAR_DATE ( 2021, 26, 11 ) ;
#157 = FACE_OUTER_BOUND ( 'NONE', #197, .T. ) ;
#158 = AXIS2_PLACEMENT_3D ( 'NONE', #189, #26, #25 ) ;
#159 = AXIS2_PLACEMENT_3D ( 'NONE', #215, #162, #45 ) ;
#160 = EDGE_LOOP ( 'NONE', ( #108 ) ) ;
#161 = ORIENTED_EDGE ( 'NONE', *, *, #107, .T. ) ;
#162 = DIRECTION ( 'NONE',  ( -3.491481338843133355E-15, 1.049697256412017316E-16, -1.000000000000000000 ) ) ;
#163 = CIRCLE ( 'NONE', #43, 1.683999999999998387 ) ;
#164 = EDGE_CURVE ( 'NONE', #223, #223, #48, .T. ) ;
#165 = FACE_OUTER_BOUND ( 'NONE', #62, .T. ) ;
#166 = DIRECTION ( 'NONE',  ( -3.491481338843133355E-15, 1.049697256412017316E-16, -1.000000000000000000 ) ) ;
#167 = DIRECTION ( 'NONE',  ( -3.491481338843133355E-15, 1.049697256412017316E-16, -1.000000000000000000 ) ) ;
#168 = FACE_BOUND ( 'NONE', #106, .T. ) ;
#169 = DIRECTION ( 'NONE',  ( -3.491481338843133355E-15, -5.514901381463751611E-16, -1.000000000000000000 ) ) ;
#170 = CARTESIAN_POINT ( 'NONE',  ( 3.869445280877825183E-14, 1.499999999999991562, 11.08253175473057617 ) ) ;
#171 = ADVANCED_FACE ( 'NONE', ( #146, #165 ), #183, .T. ) ;
#172 = PERSON_AND_ORGANIZATION_ROLE ( 'design_owner' ) ;
#173 = PERSON_AND_ORGANIZATION ( #81, #187 ) ;
#174 = PRODUCT_DEFINITION_FORMATION_WITH_SPECIFIED_SOURCE ( 'ANY', '', #82, .NOT_KNOWN. ) ;
#175 = PERSON_AND_ORGANIZATION_ROLE ( 'design_supplier' ) ;
#176 = EDGE_CURVE ( 'NONE', #54, #54, #90, .T. ) ;
#177 = AXIS2_PLACEMENT_3D ( 'NONE', #91, #31, #199 ) ;
#178 = ORIENTED_EDGE ( 'NONE', *, *, #164, .T. ) ;
#179 = ORIENTED_EDGE ( 'NONE', *, *, #79, .T. ) ;
#180 = DIRECTION ( 'NONE',  ( 3.664998382197393967E-31, 1.000000000000000000, 1.049697256412017316E-16 ) ) ;
#181 = EDGE_LOOP ( 'NONE', ( #161 ) ) ;
#182 = CARTESIAN_POINT ( 'NONE',  ( 3.869445280877825183E-14, -1.163330317703974635E-15, 11.08253175473057617 ) ) ;
#183 = CYLINDRICAL_SURFACE ( 'NONE', #61, 1.499999999999995337 ) ;
#184 = DIRECTION ( 'NONE',  ( -1.944228566186641367E-30, 1.000000000000000000, -5.472516903875769863E-16 ) ) ;
#185 = DIRECTION ( 'NONE',  ( 0.0000000000000000000, 1.000000000000000000, 0.0000000000000000000 ) ) ;
#186 = DIRECTION ( 'NONE',  ( 0.0000000000000000000, 1.000000000000000000, 0.0000000000000000000 ) ) ;
#187 = ORGANIZATION ( 'UNSPECIFIED', 'UNSPECIFIED', '' ) ;
#188 = CONICAL_SURFACE ( 'NONE', #97, 1.499999999999997558, 0.7853981633974573828 ) ;
#189 = CARTESIAN_POINT ( 'NONE',  ( 0.0000000000000000000, 0.0000000000000000000, 0.0000000000000000000 ) ) ;
#190 = APPROVAL ( #120, 'UNSPECIFIED' ) ;
#191 = PERSON_AND_ORGANIZATION ( #81, #187 ) ;
#192 = ADVANCED_BREP_SHAPE_REPRESENTATION ( '321240', ( #154, #155, #158 ), #204 ) ;
#193 = AXIS2_PLACEMENT_3D ( 'NONE', #23, #169, #201 ) ;
#194 = ORIENTED_EDGE ( 'NONE', *, *, #133, .T. ) ;
#195 = CC_DESIGN_DATE_AND_TIME_ASSIGNMENT ( #76, #9, ( #58 ) ) ;
#196 = EDGE_LOOP ( 'NONE', ( #86 ) ) ;
#197 = EDGE_LOOP ( 'NONE', ( #178 ) ) ;
#198 = AXIS2_PLACEMENT_3D ( 'NONE', #47, #167, #186 ) ;
#199 = DIRECTION ( 'NONE',  ( -1.925517525894090482E-30, 1.000000000000000000, -5.514901381463751611E-16 ) ) ;
#200 = AXIS2_PLACEMENT_3D ( 'NONE', #182, #20, #92 ) ;
#201 = DIRECTION ( 'NONE',  ( -1.925517525894090482E-30, 1.000000000000000000, -5.514901381463751611E-16 ) ) ;
#202 = PLANE ( 'NONE',  #135 ) ;
#203 = FACE_OUTER_BOUND ( 'NONE', #196, .T. ) ;
#204 =( GEOMETRIC_REPRESENTATION_CONTEXT ( 3 ) GLOBAL_UNCERTAINTY_ASSIGNED_CONTEXT ( ( #217 ) ) GLOBAL_UNIT_ASSIGNED_CONTEXT ( ( #57, #118, #42 ) ) REPRESENTATION_CONTEXT ( 'NONE', 'WORKASPACE' ) );
#205 = CC_DESIGN_PERSON_AND_ORGANIZATION_ASSIGNMENT ( #59, #230, ( #174 ) ) ;
#206 = DIRECTION ( 'NONE',  ( 1.925517525894090482E-30, -1.000000000000000000, 5.514901381463751611E-16 ) ) ;
#207 = CALENDAR_DATE ( 2021, 26, 11 ) ;
#208 = PERSON_AND_ORGANIZATION ( #81, #187 ) ;
#209 = CALENDAR_DATE ( 2021, 26, 11 ) ;
#210 = SECURITY_CLASSIFICATION_LEVEL ( 'unclassified' ) ;
#211 = AXIS2_PLACEMENT_3D ( 'NONE', #235, #19, #63 ) ;
#212 = ADVANCED_FACE ( 'NONE', ( #53, #203 ), #139, .T. ) ;
#213 = EDGE_LOOP ( 'NONE', ( #88 ) ) ;
#214 = EDGE_LOOP ( 'NONE', ( #234 ) ) ;
#215 = CARTESIAN_POINT ( 'NONE',  ( 2.433562493173664138E-13, -7.316389877191761450E-15, 69.70000000000001705 ) ) ;
#216 = CIRCLE ( 'NONE', #200, 1.499999999999992673 ) ;
#217 = UNCERTAINTY_MEASURE_WITH_UNIT (LENGTH_MEASURE( 1.000000000000000082E-05 ), #57, 'distance_accuracy_value', 'NONE');
#218 = EDGE_LOOP ( 'NONE', ( #65 ) ) ;
#219 = ADVANCED_FACE ( 'NONE', ( #134 ), #202, .T. ) ;
#220 = CARTESIAN_POINT ( 'NONE',  ( 3.758172696342809363E-14, 5.936148523625689425E-15, 10.76383440613788700 ) ) ;
#221 = LOCAL_TIME ( 14, 1, 42.00000000000000000, #11 ) ;
#222 = FACE_OUTER_BOUND ( 'NONE', #17, .T. ) ;
#223 = VERTEX_POINT ( 'NONE', #153 ) ;
#224 = CARTESIAN_POINT ( 'NONE',  ( 0.0000000000000000000, 0.0000000000000000000, 0.0000000000000000000 ) ) ;
#225 = APPROVAL_PERSON_ORGANIZATION ( #24, #152, #27 ) ;
#226 = DIRECTION ( 'NONE',  ( -3.491481338843133355E-15, -5.514901381463751611E-16, -1.000000000000000000 ) ) ;
#227 = AXIS2_PLACEMENT_3D ( 'NONE', #128, #21, #93 ) ;
#228 = PRODUCT_DEFINITION_SHAPE ( 'NONE', 'NONE',  #58 ) ;
#229 = PERSON_AND_ORGANIZATION_ROLE ( 'classification_officer' ) ;
#230 = PERSON_AND_ORGANIZATION_ROLE ( 'creator' ) ;
#231 = CC_DESIGN_DATE_AND_TIME_ASSIGNMENT ( #38, #117, ( #238 ) ) ;
#232 = MECHANICAL_CONTEXT ( 'NONE', #71, 'mechanical' ) ;
#233 = CARTESIAN_POINT ( 'NONE',  ( 2.444036937190193601E-13, 1.199999999999990186, 70.00000000000000000 ) ) ;
#234 = ORIENTED_EDGE ( 'NONE', *, *, #8, .T. ) ;
#235 = CARTESIAN_POINT ( 'NONE',  ( 3.758172696342809994E-14, 5.936148523625690214E-15, 10.76383440613788878 ) ) ;
#236 = ADVANCED_FACE ( 'NONE', ( #129, #95 ), #188, .T. ) ;
#237 = CC_DESIGN_SECURITY_CLASSIFICATION ( #238, ( #174 ) ) ;
#238 = SECURITY_CLASSIFICATION ( '', '', #210 ) ;
#239 = FACE_OUTER_BOUND ( 'NONE', #109, .T. ) ;
#240 = DIRECTION ( 'NONE',  ( -3.491481338843133355E-15, -5.514901381463751611E-16, -1.000000000000000000 ) ) ;
#241 = EDGE_CURVE ( 'NONE', #56, #56, #216, .T. ) ;
#242 = VERTEX_POINT ( 'NONE', #147 ) ;
#243 = CARTESIAN_POINT ( 'NONE',  ( 8.728703347107831416E-16, 1.683999999999998609, 0.2499999999999999445 ) ) ;
ENDSEC;
END-ISO-10303-21;
