ISO-10303-21;
HEADER;
FILE_DESCRIPTION (( 'STEP AP203' ),
    '1' );
FILE_NAME ('321239.step',
    '2021-11-26T13:01:42',
    ( '' ),
    ( '' ),
    'SwSTEP 2.0',
    'SolidWorks 2019',
    '' );
FILE_SCHEMA (( 'CONFIG_CONTROL_DESIGN' ));
ENDSEC;

DATA;
#1 = CONICAL_SURFACE ( 'NONE', #114, 1.678999999999999826, 0.5235987755982955960 ) ;
#2 = VERTEX_POINT ( 'NONE', #19 ) ;
#3 = PERSON_AND_ORGANIZATION ( #46, #203 ) ;
#4 = EDGE_LOOP ( 'NONE', ( #24 ) ) ;
#5 = ADVANCED_BREP_SHAPE_REPRESENTATION ( '321239', ( #40, #41, #103 ), #90 ) ;
#6 = AXIS2_PLACEMENT_3D ( 'NONE', #133, #112, #88 ) ;
#7 = DIRECTION ( 'NONE',  ( -3.491481338843133355E-15, 1.049697256412017316E-16, -1.000000000000000000 ) ) ;
#8 = LOCAL_TIME ( 14, 1, 42.00000000000000000, #229 ) ;
#9 = EDGE_LOOP ( 'NONE', ( #116 ) ) ;
#10 = PLANE ( 'NONE',  #180 ) ;
#11 = DIRECTION ( 'NONE',  ( -3.491481338843133355E-15, 1.049697256412017316E-16, -1.000000000000000000 ) ) ;
#12 = CONICAL_SURFACE ( 'NONE', #43, 1.534662432702592838, 0.5235987755982971503 ) ;
#13 = CARTESIAN_POINT ( 'NONE',  ( 2.433562493173664138E-13, -7.316389877191761450E-15, 69.70000000000001705 ) ) ;
#14 = APPROVAL_ROLE ( '' ) ;
#15 = PERSON_AND_ORGANIZATION ( #46, #203 ) ;
#16 = APPROVAL ( #139, 'UNSPECIFIED' ) ;
#17 = CLOSED_SHELL ( 'NONE', ( #242, #35, #204, #240, #76 ) ) ;
#18 = CIRCLE ( 'NONE', #65, 1.534662432702592838 ) ;
#19 = CARTESIAN_POINT ( 'NONE',  ( 2.444036937190193601E-13, 1.199999999999990186, 70.00000000000000000 ) ) ;
#20 = COORDINATED_UNIVERSAL_TIME_OFFSET ( 1, 0, .AHEAD. ) ;
#21 = APPROVAL_PERSON_ORGANIZATION ( #136, #16, #59 ) ;
#22 = CC_DESIGN_DATE_AND_TIME_ASSIGNMENT ( #226, #211, ( #222 ) ) ;
#23 = SECURITY_CLASSIFICATION_LEVEL ( 'unclassified' ) ;
#24 = ORIENTED_EDGE ( 'NONE', *, *, #164, .F. ) ;
#25 = PERSON_AND_ORGANIZATION_ROLE ( 'design_supplier' ) ;
#26 = ORIENTED_EDGE ( 'NONE', *, *, #95, .T. ) ;
#27 = ORIENTED_EDGE ( 'NONE', *, *, #199, .T. ) ;
#28 = FACE_OUTER_BOUND ( 'NONE', #153, .T. ) ;
#29 = PLANE ( 'NONE',  #60 ) ;
#30 = PRODUCT ( '321239', '321239', '', ( #135 ) ) ;
#31 = CARTESIAN_POINT ( 'NONE',  ( 2.433562493173664138E-13, -7.316389877191761450E-15, 69.70000000000001705 ) ) ;
#32 = CYLINDRICAL_SURFACE ( 'NONE', #48, 1.678999999999995829 ) ;
#33 = CC_DESIGN_APPROVAL ( #61, ( #147 ) ) ;
#34 = VERTEX_POINT ( 'NONE', #69 ) ;
#35 = ADVANCED_FACE ( 'NONE', ( #196, #218 ), #52, .T. ) ;
#36 = DATE_AND_TIME ( #221, #134 ) ;
#37 = LOCAL_TIME ( 14, 1, 42.00000000000000000, #137 ) ;
#38 = VERTEX_POINT ( 'NONE', #163 ) ;
#39 = COORDINATED_UNIVERSAL_TIME_OFFSET ( 1, 0, .AHEAD. ) ;
#40 = MANIFOLD_SOLID_BREP ( 'Corps-Déplacer/Copier1[1]', #17 ) ;
#41 = MANIFOLD_SOLID_BREP ( 'Corps-Déplacer/Copier1[2]', #124 ) ;
#42 = EDGE_LOOP ( 'NONE', ( #98 ) ) ;
#43 = AXIS2_PLACEMENT_3D ( 'NONE', #148, #89, #165 ) ;
#44 = EDGE_LOOP ( 'NONE', ( #78 ) ) ;
#45 = DIRECTION ( 'NONE',  ( 3.664998382197393967E-31, 1.000000000000000000, 1.049697256412017316E-16 ) ) ;
#46 = PERSON ( 'UNSPECIFIED', 'UNSPECIFIED', 'UNSPECIFIED', ('UNSPECIFIED'), ('UNSPECIFIED'), ('UNSPECIFIED') ) ;
#47 = CARTESIAN_POINT ( 'NONE',  ( 3.761196407879087498E-14, 1.678999999999998938, 10.77249466017573454 ) ) ;
#48 = AXIS2_PLACEMENT_3D ( 'NONE', #109, #239, #174 ) ;
#49 = DIRECTION ( 'NONE',  ( -3.491481338843133355E-15, -5.508498783559791530E-16, -1.000000000000000000 ) ) ;
#50 = DIRECTION ( 'NONE',  ( -3.491481338843133355E-15, -5.508498783559791530E-16, -1.000000000000000000 ) ) ;
#51 = FACE_OUTER_BOUND ( 'NONE', #208, .T. ) ;
#52 = CONICAL_SURFACE ( 'NONE', #82, 1.499999999999997558, 0.7853981633974573828 ) ;
#53 = EDGE_CURVE ( 'NONE', #70, #70, #217, .T. ) ;
#54 =( LENGTH_UNIT ( ) NAMED_UNIT ( * ) SI_UNIT ( .MILLI., .METRE. ) );
#55 = VERTEX_POINT ( 'NONE', #111 ) ;
#56 = DIRECTION ( 'NONE',  ( 0.0000000000000000000, 0.0000000000000000000, 1.000000000000000000 ) ) ;
#57 = PERSON_AND_ORGANIZATION_ROLE ( 'creator' ) ;
#58 = EDGE_LOOP ( 'NONE', ( #233 ) ) ;
#59 = APPROVAL_ROLE ( '' ) ;
#60 = AXIS2_PLACEMENT_3D ( 'NONE', #47, #126, #84 ) ;
#61 = APPROVAL ( #93, 'UNSPECIFIED' ) ;
#62 = FACE_OUTER_BOUND ( 'NONE', #216, .T. ) ;
#63 = DIRECTION ( 'NONE',  ( 0.0000000000000000000, 1.000000000000000000, 0.0000000000000000000 ) ) ;
#64 = CARTESIAN_POINT ( 'NONE',  ( 3.761196407879087498E-14, 5.934027373148237759E-15, 10.77249466017573454 ) ) ;
#65 = AXIS2_PLACEMENT_3D ( 'NONE', #85, #215, #123 ) ;
#66 = FACE_OUTER_BOUND ( 'NONE', #58, .T. ) ;
#67 = CARTESIAN_POINT ( 'NONE',  ( 0.0000000000000000000, 0.0000000000000000000, 0.0000000000000000000 ) ) ;
#68 = APPROVAL ( #228, 'UNSPECIFIED' ) ;
#69 = CARTESIAN_POINT ( 'NONE',  ( 2.433562493173664138E-13, 1.499999999999990230, 69.70000000000001705 ) ) ;
#70 = VERTEX_POINT ( 'NONE', #130 ) ;
#71 = ADVANCED_FACE ( 'NONE', ( #62 ), #10, .T. ) ;
#72 = CARTESIAN_POINT ( 'NONE',  ( 0.0000000000000000000, 0.0000000000000000000, 0.0000000000000000000 ) ) ;
#73 = AXIS2_PLACEMENT_3D ( 'NONE', #162, #176, #160 ) ;
#74 = AXIS2_PLACEMENT_3D ( 'NONE', #31, #195, #106 ) ;
#75 = ORIENTED_EDGE ( 'NONE', *, *, #230, .T. ) ;
#76 = ADVANCED_FACE ( 'NONE', ( #159 ), #29, .T. ) ;
#77 = PERSON_AND_ORGANIZATION ( #46, #203 ) ;
#78 = ORIENTED_EDGE ( 'NONE', *, *, #110, .F. ) ;
#79 = PRODUCT_DEFINITION_FORMATION_WITH_SPECIFIED_SOURCE ( 'ANY', '', #30, .NOT_KNOWN. ) ;
#80 = PERSON_AND_ORGANIZATION ( #46, #203 ) ;
#81 = ORIENTED_EDGE ( 'NONE', *, *, #53, .T. ) ;
#82 = AXIS2_PLACEMENT_3D ( 'NONE', #13, #141, #63 ) ;
#83 = DIRECTION ( 'NONE',  ( -3.491481338843133355E-15, -5.508498783559791530E-16, -1.000000000000000000 ) ) ;
#84 = DIRECTION ( 'NONE',  ( 3.664998382197393967E-31, 1.000000000000000000, 1.049697256412017316E-16 ) ) ;
#85 = CARTESIAN_POINT ( 'NONE',  ( 2.762315158884201453E-30, 4.358095666512750123E-31, 7.911585057474389968E-16 ) ) ;
#86 = LOCAL_TIME ( 14, 1, 42.00000000000000000, #156 ) ;
#87 = DIRECTION ( 'NONE',  ( -1.923282070783911289E-30, 1.000000000000000000, -5.508498783559791530E-16 ) ) ;
#88 = DIRECTION ( 'NONE',  ( -3.664998382197393967E-31, -1.000000000000000000, -1.049697256412017316E-16 ) ) ;
#89 = DIRECTION ( 'NONE',  ( 3.491481338843133355E-15, 5.508498783559791530E-16, 1.000000000000000000 ) ) ;
#90 =( GEOMETRIC_REPRESENTATION_CONTEXT ( 3 ) GLOBAL_UNCERTAINTY_ASSIGNED_CONTEXT ( ( #115 ) ) GLOBAL_UNIT_ASSIGNED_CONTEXT ( ( #54, #182, #131 ) ) REPRESENTATION_CONTEXT ( 'NONE', 'WORKASPACE' ) );
#91 = FACE_BOUND ( 'NONE', #227, .T. ) ;
#92 = APPLICATION_PROTOCOL_DEFINITION ( 'international standard', 'config_control_design', 1994, #107 ) ;
#93 = APPROVAL_STATUS ( 'not_yet_approved' ) ;
#94 = APPROVAL_PERSON_ORGANIZATION ( #77, #68, #206 ) ;
#95 = EDGE_CURVE ( 'NONE', #34, #34, #179, .T. ) ;
#96 = APPROVAL_DATE_TIME ( #190, #68 ) ;
#97 = PERSON_AND_ORGANIZATION_ROLE ( 'creator' ) ;
#98 = ORIENTED_EDGE ( 'NONE', *, *, #230, .F. ) ;
#99 = AXIS2_PLACEMENT_3D ( 'NONE', #108, #193, #178 ) ;
#100 = SHAPE_DEFINITION_REPRESENTATION ( #220, #5 ) ;
#101 = PERSON_AND_ORGANIZATION ( #46, #203 ) ;
#102 = DIRECTION ( 'NONE',  ( -3.491481338843133355E-15, 1.049697256412017316E-16, -1.000000000000000000 ) ) ;
#103 = AXIS2_PLACEMENT_3D ( 'NONE', #72, #56, #223 ) ;
#104 = DIRECTION ( 'NONE',  ( 0.0000000000000000000, 1.000000000000000000, 0.0000000000000000000 ) ) ;
#105 = CC_DESIGN_PERSON_AND_ORGANIZATION_ASSIGNMENT ( #101, #152, ( #222 ) ) ;
#106 = DIRECTION ( 'NONE',  ( 0.0000000000000000000, 1.000000000000000000, 0.0000000000000000000 ) ) ;
#107 = APPLICATION_CONTEXT ( 'configuration controlled 3d designs of mechanical parts and assemblies' ) ;
#108 = CARTESIAN_POINT ( 'NONE',  ( 3.761196407879087498E-14, 5.934027373148237759E-15, 10.77249466017573454 ) ) ;
#109 = CARTESIAN_POINT ( 'NONE',  ( 0.0000000000000000000, 0.0000000000000000000, 0.0000000000000000000 ) ) ;
#110 = EDGE_CURVE ( 'NONE', #224, #224, #150, .T. ) ;
#111 = CARTESIAN_POINT ( 'NONE',  ( 3.761196407879086867E-14, 1.678999999999998938, 10.77249466017573276 ) ) ;
#112 = DIRECTION ( 'NONE',  ( 3.491481338843133355E-15, -1.049697256412017316E-16, 1.000000000000000000 ) ) ;
#113 = CC_DESIGN_PERSON_AND_ORGANIZATION_ASSIGNMENT ( #3, #57, ( #79 ) ) ;
#114 = AXIS2_PLACEMENT_3D ( 'NONE', #198, #149, #205 ) ;
#115 = UNCERTAINTY_MEASURE_WITH_UNIT (LENGTH_MEASURE( 1.000000000000000082E-05 ), #54, 'distance_accuracy_value', 'NONE');
#116 = ORIENTED_EDGE ( 'NONE', *, *, #95, .F. ) ;
#117 = EDGE_LOOP ( 'NONE', ( #197 ) ) ;
#118 = CC_DESIGN_PERSON_AND_ORGANIZATION_ASSIGNMENT ( #15, #97, ( #147 ) ) ;
#119 = LOCAL_TIME ( 14, 1, 42.00000000000000000, #39 ) ;
#120 = CALENDAR_DATE ( 2021, 26, 11 ) ;
#121 = CARTESIAN_POINT ( 'NONE',  ( 8.728703347107864943E-16, 1.377124695889952813E-16, 0.2500000000000008882 ) ) ;
#122 = CC_DESIGN_PERSON_AND_ORGANIZATION_ASSIGNMENT ( #145, #185, ( #30 ) ) ;
#123 = DIRECTION ( 'NONE',  ( -1.923282070783911289E-30, 1.000000000000000000, -5.508498783559790544E-16 ) ) ;
#124 = CLOSED_SHELL ( 'NONE', ( #173, #207, #234, #71 ) ) ;
#125 = CIRCLE ( 'NONE', #237, 1.199999999999997513 ) ;
#126 = DIRECTION ( 'NONE',  ( -3.491481338843133355E-15, 1.049697256412017316E-16, -1.000000000000000000 ) ) ;
#127 = DIRECTION ( 'NONE',  ( -3.670622883882775622E-30, 1.000000000000000000, -1.033188490754505231E-15 ) ) ;
#128 = DESIGN_CONTEXT ( 'detailed design', #167, 'design' ) ;
#129 = FACE_OUTER_BOUND ( 'NONE', #42, .T. ) ;
#130 = CARTESIAN_POINT ( 'NONE',  ( 3.869445280877825183E-14, 1.499999999999991562, 11.08253175473057617 ) ) ;
#131 =( NAMED_UNIT ( * ) SI_UNIT ( $, .STERADIAN. ) SOLID_ANGLE_UNIT ( ) );
#132 = VERTEX_POINT ( 'NONE', #201 ) ;
#133 = CARTESIAN_POINT ( 'NONE',  ( 2.444036937190193601E-13, -7.347880794884121511E-15, 70.00000000000000000 ) ) ;
#134 = LOCAL_TIME ( 14, 1, 42.00000000000000000, #20 ) ;
#135 = MECHANICAL_CONTEXT ( 'NONE', #107, 'mechanical' ) ;
#136 = PERSON_AND_ORGANIZATION ( #46, #203 ) ;
#137 = COORDINATED_UNIVERSAL_TIME_OFFSET ( 1, 0, .AHEAD. ) ;
#138 = CALENDAR_DATE ( 2021, 26, 11 ) ;
#139 = APPROVAL_STATUS ( 'not_yet_approved' ) ;
#140 = PLANE ( 'NONE',  #99 ) ;
#141 = DIRECTION ( 'NONE',  ( -3.491481338843133355E-15, 1.049697256412017316E-16, -1.000000000000000000 ) ) ;
#142 = CC_DESIGN_APPROVAL ( #68, ( #79 ) ) ;
#143 = CARTESIAN_POINT ( 'NONE',  ( -1.570431162080416665E-30, 1.534662432702592838, -4.497893614979947694E-16 ) ) ;
#144 = CYLINDRICAL_SURFACE ( 'NONE', #154, 1.499999999999995337 ) ;
#145 = PERSON_AND_ORGANIZATION ( #46, #203 ) ;
#146 = PLANE ( 'NONE',  #6 ) ;
#147 = PRODUCT_DEFINITION ( 'UNKNOWN', '', #79, #128 ) ;
#148 = CARTESIAN_POINT ( 'NONE',  ( 2.762315158884201453E-30, 4.358095666512750123E-31, 7.911585057474389968E-16 ) ) ;
#149 = DIRECTION ( 'NONE',  ( -3.491481338843133355E-15, 1.049697256412017316E-16, -1.000000000000000000 ) ) ;
#150 = CIRCLE ( 'NONE', #73, 1.678999999999999826 ) ;
#151 = CC_DESIGN_PERSON_AND_ORGANIZATION_ASSIGNMENT ( #80, #25, ( #79 ) ) ;
#152 = PERSON_AND_ORGANIZATION_ROLE ( 'classification_officer' ) ;
#153 = EDGE_LOOP ( 'NONE', ( #75 ) ) ;
#154 = AXIS2_PLACEMENT_3D ( 'NONE', #67, #102, #45 ) ;
#155 = PRODUCT_RELATED_PRODUCT_CATEGORY ( 'detail', '', ( #30 ) ) ;
#156 = COORDINATED_UNIVERSAL_TIME_OFFSET ( 1, 0, .AHEAD. ) ;
#157 = EDGE_LOOP ( 'NONE', ( #231 ) ) ;
#158 = DIRECTION ( 'NONE',  ( -1.950018407062717981E-30, 1.000000000000000000, -5.488813857133290552E-16 ) ) ;
#159 = FACE_OUTER_BOUND ( 'NONE', #157, .T. ) ;
#160 = DIRECTION ( 'NONE',  ( 0.0000000000000000000, 1.000000000000000000, 0.0000000000000000000 ) ) ;
#161 = CARTESIAN_POINT ( 'NONE',  ( 2.444036937190193601E-13, -7.347880794884121511E-15, 70.00000000000000000 ) ) ;
#162 = CARTESIAN_POINT ( 'NONE',  ( 3.761196407879086867E-14, -1.130785808949957253E-15, 10.77249466017573276 ) ) ;
#163 = CARTESIAN_POINT ( 'NONE',  ( 8.728703347107831416E-16, 1.678999999999998938, 0.2499999999999999445 ) ) ;
#164 = EDGE_CURVE ( 'NONE', #55, #55, #232, .T. ) ;
#165 = DIRECTION ( 'NONE',  ( 1.923282070783911289E-30, -1.000000000000000000, 5.508498783559790544E-16 ) ) ;
#166 = CC_DESIGN_SECURITY_CLASSIFICATION ( #222, ( #79 ) ) ;
#167 = APPLICATION_CONTEXT ( 'configuration controlled 3d designs of mechanical parts and assemblies' ) ;
#168 = FACE_OUTER_BOUND ( 'NONE', #44, .T. ) ;
#169 = CIRCLE ( 'NONE', #194, 1.678999999999998716 ) ;
#170 = APPROVAL_DATE_TIME ( #213, #16 ) ;
#171 = DATE_AND_TIME ( #120, #86 ) ;
#172 = ORIENTED_EDGE ( 'NONE', *, *, #164, .T. ) ;
#173 = ADVANCED_FACE ( 'NONE', ( #192 ), #140, .T. ) ;
#174 = DIRECTION ( 'NONE',  ( -1.923282070783910939E-30, 1.000000000000000000, -5.508498783559790544E-16 ) ) ;
#175 = EDGE_LOOP ( 'NONE', ( #26 ) ) ;
#176 = DIRECTION ( 'NONE',  ( -3.491481338843133355E-15, 1.049697256412017316E-16, -1.000000000000000000 ) ) ;
#177 = EDGE_CURVE ( 'NONE', #132, #132, #18, .T. ) ;
#178 = DIRECTION ( 'NONE',  ( 1.923282070783911289E-30, -1.000000000000000000, 5.508498783559791530E-16 ) ) ;
#179 = CIRCLE ( 'NONE', #74, 1.499999999999997558 ) ;
#180 = AXIS2_PLACEMENT_3D ( 'NONE', #143, #49, #87 ) ;
#181 = FACE_OUTER_BOUND ( 'NONE', #175, .T. ) ;
#182 =( NAMED_UNIT ( * ) PLANE_ANGLE_UNIT ( ) SI_UNIT ( $, .RADIAN. ) );
#183 = APPROVAL_DATE_TIME ( #36, #61 ) ;
#184 = APPROVAL_PERSON_ORGANIZATION ( #187, #61, #14 ) ;
#185 = PERSON_AND_ORGANIZATION_ROLE ( 'design_owner' ) ;
#186 = CC_DESIGN_DATE_AND_TIME_ASSIGNMENT ( #171, #191, ( #147 ) ) ;
#187 = PERSON_AND_ORGANIZATION ( #46, #203 ) ;
#188 = CALENDAR_DATE ( 2021, 26, 11 ) ;
#189 = ORIENTED_EDGE ( 'NONE', *, *, #177, .T. ) ;
#190 = DATE_AND_TIME ( #188, #8 ) ;
#191 = DATE_TIME_ROLE ( 'creation_date' ) ;
#192 = FACE_OUTER_BOUND ( 'NONE', #4, .T. ) ;
#193 = DIRECTION ( 'NONE',  ( 3.491481338843133355E-15, 5.508498783559791530E-16, 1.000000000000000000 ) ) ;
#194 = AXIS2_PLACEMENT_3D ( 'NONE', #121, #83, #158 ) ;
#195 = DIRECTION ( 'NONE',  ( -3.491481338843133355E-15, 1.049697256412017316E-16, -1.000000000000000000 ) ) ;
#196 = FACE_BOUND ( 'NONE', #214, .T. ) ;
#197 = ORIENTED_EDGE ( 'NONE', *, *, #177, .F. ) ;
#198 = CARTESIAN_POINT ( 'NONE',  ( 3.761196407879086867E-14, -1.130785808949957253E-15, 10.77249466017573276 ) ) ;
#199 = EDGE_CURVE ( 'NONE', #2, #2, #125, .T. ) ;
#200 = APPLICATION_PROTOCOL_DEFINITION ( 'international standard', 'config_control_design', 1994, #167 ) ;
#201 = CARTESIAN_POINT ( 'NONE',  ( -1.892735826383161356E-31, 1.534662432702592838, -5.421010862427522170E-17 ) ) ;
#202 = AXIS2_PLACEMENT_3D ( 'NONE', #238, #11, #236 ) ;
#203 = ORGANIZATION ( 'UNSPECIFIED', 'UNSPECIFIED', '' ) ;
#204 = ADVANCED_FACE ( 'NONE', ( #181, #66 ), #144, .T. ) ;
#205 = DIRECTION ( 'NONE',  ( 0.0000000000000000000, 1.000000000000000000, 0.0000000000000000000 ) ) ;
#206 = APPROVAL_ROLE ( '' ) ;
#207 = ADVANCED_FACE ( 'NONE', ( #219, #129 ), #32, .T. ) ;
#208 = EDGE_LOOP ( 'NONE', ( #212 ) ) ;
#209 = CC_DESIGN_APPROVAL ( #16, ( #222 ) ) ;
#210 = CALENDAR_DATE ( 2021, 26, 11 ) ;
#211 = DATE_TIME_ROLE ( 'classification_date' ) ;
#212 = ORIENTED_EDGE ( 'NONE', *, *, #199, .F. ) ;
#213 = DATE_AND_TIME ( #210, #37 ) ;
#214 = EDGE_LOOP ( 'NONE', ( #27 ) ) ;
#215 = DIRECTION ( 'NONE',  ( -3.491481338843133355E-15, -5.508498783559791530E-16, -1.000000000000000000 ) ) ;
#216 = EDGE_LOOP ( 'NONE', ( #189 ) ) ;
#217 = CIRCLE ( 'NONE', #202, 1.499999999999992673 ) ;
#218 = FACE_OUTER_BOUND ( 'NONE', #9, .T. ) ;
#219 = FACE_OUTER_BOUND ( 'NONE', #235, .T. ) ;
#220 = PRODUCT_DEFINITION_SHAPE ( 'NONE', 'NONE',  #147 ) ;
#221 = CALENDAR_DATE ( 2021, 26, 11 ) ;
#222 = SECURITY_CLASSIFICATION ( '', '', #23 ) ;
#223 = DIRECTION ( 'NONE',  ( 1.000000000000000000, 0.0000000000000000000, 0.0000000000000000000 ) ) ;
#224 = VERTEX_POINT ( 'NONE', #225 ) ;
#225 = CARTESIAN_POINT ( 'NONE',  ( 3.761196407879086867E-14, 1.678999999999998938, 10.77249466017573276 ) ) ;
#226 = DATE_AND_TIME ( #138, #119 ) ;
#227 = EDGE_LOOP ( 'NONE', ( #81 ) ) ;
#228 = APPROVAL_STATUS ( 'not_yet_approved' ) ;
#229 = COORDINATED_UNIVERSAL_TIME_OFFSET ( 1, 0, .AHEAD. ) ;
#230 = EDGE_CURVE ( 'NONE', #38, #38, #169, .T. ) ;
#231 = ORIENTED_EDGE ( 'NONE', *, *, #110, .T. ) ;
#232 = CIRCLE ( 'NONE', #241, 1.678999999999992943 ) ;
#233 = ORIENTED_EDGE ( 'NONE', *, *, #53, .F. ) ;
#234 = ADVANCED_FACE ( 'NONE', ( #28, #243 ), #12, .T. ) ;
#235 = EDGE_LOOP ( 'NONE', ( #172 ) ) ;
#236 = DIRECTION ( 'NONE',  ( 0.0000000000000000000, 1.000000000000000000, 0.0000000000000000000 ) ) ;
#237 = AXIS2_PLACEMENT_3D ( 'NONE', #161, #7, #104 ) ;
#238 = CARTESIAN_POINT ( 'NONE',  ( 3.869445280877825183E-14, -1.163330317703974635E-15, 11.08253175473057617 ) ) ;
#239 = DIRECTION ( 'NONE',  ( -3.491481338843133355E-15, -5.508498783559791530E-16, -1.000000000000000000 ) ) ;
#240 = ADVANCED_FACE ( 'NONE', ( #91, #168 ), #1, .T. ) ;
#241 = AXIS2_PLACEMENT_3D ( 'NONE', #64, #50, #127 ) ;
#242 = ADVANCED_FACE ( 'NONE', ( #51 ), #146, .T. ) ;
#243 = FACE_BOUND ( 'NONE', #117, .T. ) ;
ENDSEC;
END-ISO-10303-21;
