ISO-10303-21;
HEADER;
FILE_DESCRIPTION (( 'STEP AP203' ),
    '1' );
FILE_NAME ('321238.step',
    '2021-11-26T13:01:41',
    ( '' ),
    ( '' ),
    'SwSTEP 2.0',
    'SolidWorks 2019',
    '' );
FILE_SCHEMA (( 'CONFIG_CONTROL_DESIGN' ));
ENDSEC;

DATA;
#1 = FACE_OUTER_BOUND ( 'NONE', #8, .T. ) ;
#2 = CALENDAR_DATE ( 2021, 26, 11 ) ;
#3 = ADVANCED_FACE ( 'NONE', ( #104, #219 ), #117, .T. ) ;
#4 = CIRCLE ( 'NONE', #49, 1.199999999999997513 ) ;
#5 = DATE_TIME_ROLE ( 'creation_date' ) ;
#6 = DIRECTION ( 'NONE',  ( -1.921050207053189703E-30, 1.000000000000000000, -5.502106471775415704E-16 ) ) ;
#7 = LOCAL_TIME ( 14, 1, 41.00000000000000000, #82 ) ;
#8 = EDGE_LOOP ( 'NONE', ( #11 ) ) ;
#9 = APPROVAL_STATUS ( 'not_yet_approved' ) ;
#10 = ORIENTED_EDGE ( 'NONE', *, *, #13, .F. ) ;
#11 = ORIENTED_EDGE ( 'NONE', *, *, #150, .T. ) ;
#12 = AXIS2_PLACEMENT_3D ( 'NONE', #40, #65, #6 ) ;
#13 = EDGE_CURVE ( 'NONE', #192, #192, #112, .T. ) ;
#14 = APPROVAL_DATE_TIME ( #102, #215 ) ;
#15 = FACE_BOUND ( 'NONE', #50, .T. ) ;
#16 = CC_DESIGN_PERSON_AND_ORGANIZATION_ASSIGNMENT ( #154, #211, ( #56 ) ) ;
#17 = AXIS2_PLACEMENT_3D ( 'NONE', #171, #95, #152 ) ;
#18 = DIRECTION ( 'NONE',  ( -3.491481338843133355E-15, 1.049697256412017316E-16, -1.000000000000000000 ) ) ;
#19 = FACE_OUTER_BOUND ( 'NONE', #66, .T. ) ;
#20 = CARTESIAN_POINT ( 'NONE',  ( 3.764220119415365634E-14, 5.931906222670786093E-15, 10.78115491421357852 ) ) ;
#21 = PERSON_AND_ORGANIZATION ( #99, #148 ) ;
#22 = AXIS2_PLACEMENT_3D ( 'NONE', #131, #230, #226 ) ;
#23 = PERSON_AND_ORGANIZATION_ROLE ( 'creator' ) ;
#24 = CC_DESIGN_DATE_AND_TIME_ASSIGNMENT ( #155, #5, ( #85 ) ) ;
#25 = CIRCLE ( 'NONE', #12, 1.529662432702592501 ) ;
#26 = EDGE_LOOP ( 'NONE', ( #67 ) ) ;
#27 = ORIENTED_EDGE ( 'NONE', *, *, #233, .T. ) ;
#28 = ORIENTED_EDGE ( 'NONE', *, *, #108, .F. ) ;
#29 = PERSON_AND_ORGANIZATION_ROLE ( 'creator' ) ;
#30 = AXIS2_PLACEMENT_3D ( 'NONE', #20, #73, #109 ) ;
#31 = CC_DESIGN_PERSON_AND_ORGANIZATION_ASSIGNMENT ( #142, #29, ( #84 ) ) ;
#32 = FACE_OUTER_BOUND ( 'NONE', #200, .T. ) ;
#33 = CARTESIAN_POINT ( 'NONE',  ( 2.444036937190193601E-13, -7.347880794884121511E-15, 70.00000000000000000 ) ) ;
#34 = MANIFOLD_SOLID_BREP ( 'Corps-Déplacer/Copier1[1]', #91 ) ;
#35 = CARTESIAN_POINT ( 'NONE',  ( 8.728703347107864943E-16, 1.375526617943858610E-16, 0.2500000000000008882 ) ) ;
#36 = CARTESIAN_POINT ( 'NONE',  ( 2.749284750426485023E-30, 4.332504157987896315E-31, 7.874264484361908423E-16 ) ) ;
#37 = MANIFOLD_SOLID_BREP ( 'Corps-Déplacer/Copier1[2]', #122 ) ;
#38 = VERTEX_POINT ( 'NONE', #46 ) ;
#39 = CONICAL_SURFACE ( 'NONE', #201, 1.673999999999999710, 0.5235987755982935976 ) ;
#40 = CARTESIAN_POINT ( 'NONE',  ( 2.749284750426485023E-30, 4.332504157987896315E-31, 7.874264484361908423E-16 ) ) ;
#41 = APPROVAL ( #228, 'UNSPECIFIED' ) ;
#42 = VERTEX_POINT ( 'NONE', #210 ) ;
#43 = DIRECTION ( 'NONE',  ( -3.664998382197393967E-31, -1.000000000000000000, -1.049697256412017316E-16 ) ) ;
#44 = APPROVAL_PERSON_ORGANIZATION ( #177, #215, #141 ) ;
#45 = AXIS2_PLACEMENT_3D ( 'NONE', #143, #163, #239 ) ;
#46 = CARTESIAN_POINT ( 'NONE',  ( -1.892735826383161356E-31, 1.529662432702592501, -5.421010862427522170E-17 ) ) ;
#47 = ADVANCED_FACE ( 'NONE', ( #110, #32 ), #39, .T. ) ;
#48 = EDGE_LOOP ( 'NONE', ( #238 ) ) ;
#49 = AXIS2_PLACEMENT_3D ( 'NONE', #33, #184, #90 ) ;
#50 = EDGE_LOOP ( 'NONE', ( #98 ) ) ;
#51 = CALENDAR_DATE ( 2021, 26, 11 ) ;
#52 = DATE_TIME_ROLE ( 'classification_date' ) ;
#53 = UNCERTAINTY_MEASURE_WITH_UNIT (LENGTH_MEASURE( 1.000000000000000082E-05 ), #175, 'distance_accuracy_value', 'NONE');
#54 = LOCAL_TIME ( 14, 1, 41.00000000000000000, #63 ) ;
#55 = FACE_OUTER_BOUND ( 'NONE', #121, .T. ) ;
#56 = PRODUCT ( '321238', '321238', '', ( #176 ) ) ;
#57 = CARTESIAN_POINT ( 'NONE',  ( -1.563915957851558800E-30, 1.529662432702592501, -4.479233328423706428E-16 ) ) ;
#58 = DIRECTION ( 'NONE',  ( 0.0000000000000000000, 1.000000000000000000, 0.0000000000000000000 ) ) ;
#59 = DIRECTION ( 'NONE',  ( -1.955842834801854369E-30, 1.000000000000000000, -5.505208163755553688E-16 ) ) ;
#60 = DIRECTION ( 'NONE',  ( 3.664998382197393967E-31, 1.000000000000000000, 1.049697256412017316E-16 ) ) ;
#61 = VERTEX_POINT ( 'NONE', #115 ) ;
#62 = APPLICATION_PROTOCOL_DEFINITION ( 'international standard', 'config_control_design', 1994, #162 ) ;
#63 = COORDINATED_UNIVERSAL_TIME_OFFSET ( 1, 0, .AHEAD. ) ;
#64 = VERTEX_POINT ( 'NONE', #151 ) ;
#65 = DIRECTION ( 'NONE',  ( -3.491481338843133355E-15, -5.502106471775415704E-16, -1.000000000000000000 ) ) ;
#66 = EDGE_LOOP ( 'NONE', ( #10 ) ) ;
#67 = ORIENTED_EDGE ( 'NONE', *, *, #241, .F. ) ;
#68 = APPROVAL_DATE_TIME ( #137, #197 ) ;
#69 = AXIS2_PLACEMENT_3D ( 'NONE', #167, #127, #43 ) ;
#70 = ORIENTED_EDGE ( 'NONE', *, *, #79, .T. ) ;
#71 = PERSON_AND_ORGANIZATION_ROLE ( 'classification_officer' ) ;
#72 = EDGE_LOOP ( 'NONE', ( #161 ) ) ;
#73 = DIRECTION ( 'NONE',  ( -3.491481338843133355E-15, -5.502106471775415704E-16, -1.000000000000000000 ) ) ;
#74 = DIRECTION ( 'NONE',  ( -1.921050207053189703E-30, 1.000000000000000000, -5.502106471775415704E-16 ) ) ;
#75 = PLANE ( 'NONE',  #123 ) ;
#76 = AXIS2_PLACEMENT_3D ( 'NONE', #57, #146, #106 ) ;
#77 = PLANE ( 'NONE',  #45 ) ;
#78 = APPROVAL_DATE_TIME ( #196, #41 ) ;
#79 = EDGE_CURVE ( 'NONE', #42, #42, #213, .T. ) ;
#80 = CALENDAR_DATE ( 2021, 26, 11 ) ;
#81 = AXIS2_PLACEMENT_3D ( 'NONE', #242, #206, #222 ) ;
#82 = COORDINATED_UNIVERSAL_TIME_OFFSET ( 1, 0, .AHEAD. ) ;
#83 = EDGE_LOOP ( 'NONE', ( #27 ) ) ;
#84 = PRODUCT_DEFINITION_FORMATION_WITH_SPECIFIED_SOURCE ( 'ANY', '', #56, .NOT_KNOWN. ) ;
#85 = PRODUCT_DEFINITION ( 'UNKNOWN', '', #84, #218 ) ;
#86 = FACE_OUTER_BOUND ( 'NONE', #179, .T. ) ;
#87 = CYLINDRICAL_SURFACE ( 'NONE', #236, 1.673999999999995492 ) ;
#88 = PLANE ( 'NONE',  #69 ) ;
#89 = DIRECTION ( 'NONE',  ( 0.0000000000000000000, 1.000000000000000000, 0.0000000000000000000 ) ) ;
#90 = DIRECTION ( 'NONE',  ( 0.0000000000000000000, 1.000000000000000000, 0.0000000000000000000 ) ) ;
#91 = CLOSED_SHELL ( 'NONE', ( #221, #157, #144, #47, #164 ) ) ;
#92 = AXIS2_PLACEMENT_3D ( 'NONE', #208, #202, #89 ) ;
#93 = CC_DESIGN_PERSON_AND_ORGANIZATION_ASSIGNMENT ( #178, #71, ( #205 ) ) ;
#94 = APPROVAL_STATUS ( 'not_yet_approved' ) ;
#95 = DIRECTION ( 'NONE',  ( 0.0000000000000000000, 0.0000000000000000000, 1.000000000000000000 ) ) ;
#96 = COORDINATED_UNIVERSAL_TIME_OFFSET ( 1, 0, .AHEAD. ) ;
#97 = PRODUCT_DEFINITION_SHAPE ( 'NONE', 'NONE',  #85 ) ;
#98 = ORIENTED_EDGE ( 'NONE', *, *, #116, .T. ) ;
#99 = PERSON ( 'UNSPECIFIED', 'UNSPECIFIED', 'UNSPECIFIED', ('UNSPECIFIED'), ('UNSPECIFIED'), ('UNSPECIFIED') ) ;
#100 = CALENDAR_DATE ( 2021, 26, 11 ) ;
#101 = COORDINATED_UNIVERSAL_TIME_OFFSET ( 1, 0, .AHEAD. ) ;
#102 = DATE_AND_TIME ( #51, #7 ) ;
#103 = CC_DESIGN_DATE_AND_TIME_ASSIGNMENT ( #199, #52, ( #205 ) ) ;
#104 = FACE_OUTER_BOUND ( 'NONE', #138, .T. ) ;
#105 = DIRECTION ( 'NONE',  ( -3.491481338843133355E-15, 1.049697256412017316E-16, -1.000000000000000000 ) ) ;
#106 = DIRECTION ( 'NONE',  ( -1.921050207053189703E-30, 1.000000000000000000, -5.502106471775415704E-16 ) ) ;
#107 = CONICAL_SURFACE ( 'NONE', #81, 1.499999999999997558, 0.7853981633974573828 ) ;
#108 = EDGE_CURVE ( 'NONE', #227, #227, #160, .T. ) ;
#109 = DIRECTION ( 'NONE',  ( -3.681586512568208535E-30, 1.000000000000000000, -1.036274477883401740E-15 ) ) ;
#110 = FACE_BOUND ( 'NONE', #198, .T. ) ;
#111 = CARTESIAN_POINT ( 'NONE',  ( 2.444036937190193601E-13, 1.199999999999990186, 70.00000000000000000 ) ) ;
#112 = CIRCLE ( 'NONE', #92, 1.499999999999992673 ) ;
#113 = LOCAL_TIME ( 14, 1, 41.00000000000000000, #101 ) ;
#114 = PERSON_AND_ORGANIZATION ( #99, #148 ) ;
#115 = CARTESIAN_POINT ( 'NONE',  ( 3.764220119415365003E-14, 1.673999999999998600, 10.78115491421357675 ) ) ;
#116 = EDGE_CURVE ( 'NONE', #190, #190, #4, .T. ) ;
#117 = CONICAL_SURFACE ( 'NONE', #169, 1.529662432702592501, 0.5235987755982971503 ) ;
#118 = PRODUCT_RELATED_PRODUCT_CATEGORY ( 'detail', '', ( #56 ) ) ;
#119 = LOCAL_TIME ( 14, 1, 41.00000000000000000, #183 ) ;
#120 = CALENDAR_DATE ( 2021, 26, 11 ) ;
#121 = EDGE_LOOP ( 'NONE', ( #124 ) ) ;
#122 = CLOSED_SHELL ( 'NONE', ( #130, #172, #3, #209 ) ) ;
#123 = AXIS2_PLACEMENT_3D ( 'NONE', #204, #18, #60 ) ;
#124 = ORIENTED_EDGE ( 'NONE', *, *, #79, .F. ) ;
#125 = CARTESIAN_POINT ( 'NONE',  ( 3.764220119415365003E-14, -1.131694873440292977E-15, 10.78115491421357675 ) ) ;
#126 = DIRECTION ( 'NONE',  ( 0.0000000000000000000, 1.000000000000000000, 0.0000000000000000000 ) ) ;
#127 = DIRECTION ( 'NONE',  ( 3.491481338843133355E-15, -1.049697256412017316E-16, 1.000000000000000000 ) ) ;
#128 = DIRECTION ( 'NONE',  ( -3.491481338843133355E-15, 1.049697256412017316E-16, -1.000000000000000000 ) ) ;
#129 = CYLINDRICAL_SURFACE ( 'NONE', #186, 1.499999999999995337 ) ;
#130 = ADVANCED_FACE ( 'NONE', ( #86 ), #77, .T. ) ;
#131 = CARTESIAN_POINT ( 'NONE',  ( 2.433562493173664138E-13, -7.316389877191761450E-15, 69.70000000000001705 ) ) ;
#132 = AXIS2_PLACEMENT_3D ( 'NONE', #225, #128, #58 ) ;
#133 = CARTESIAN_POINT ( 'NONE',  ( 3.764220119415365003E-14, 1.673999999999998600, 10.78115491421357675 ) ) ;
#134 = APPLICATION_PROTOCOL_DEFINITION ( 'international standard', 'config_control_design', 1994, #191 ) ;
#135 = CC_DESIGN_APPROVAL ( #215, ( #205 ) ) ;
#136 = CARTESIAN_POINT ( 'NONE',  ( 3.869445280877825814E-14, 1.499999999999991562, 11.08253175473057794 ) ) ;
#137 = DATE_AND_TIME ( #100, #113 ) ;
#138 = EDGE_LOOP ( 'NONE', ( #70 ) ) ;
#139 = ORIENTED_EDGE ( 'NONE', *, *, #116, .F. ) ;
#140 =( GEOMETRIC_REPRESENTATION_CONTEXT ( 3 ) GLOBAL_UNCERTAINTY_ASSIGNED_CONTEXT ( ( #53 ) ) GLOBAL_UNIT_ASSIGNED_CONTEXT ( ( #175, #194, #212 ) ) REPRESENTATION_CONTEXT ( 'NONE', 'WORKASPACE' ) );
#141 = APPROVAL_ROLE ( '' ) ;
#142 = PERSON_AND_ORGANIZATION ( #99, #148 ) ;
#143 = CARTESIAN_POINT ( 'NONE',  ( 3.764220119415365634E-14, 5.931906222670785304E-15, 10.78115491421357852 ) ) ;
#144 = ADVANCED_FACE ( 'NONE', ( #188, #19 ), #129, .T. ) ;
#145 = FACE_OUTER_BOUND ( 'NONE', #214, .T. ) ;
#146 = DIRECTION ( 'NONE',  ( -3.491481338843133355E-15, -5.502106471775415704E-16, -1.000000000000000000 ) ) ;
#147 = DIRECTION ( 'NONE',  ( -3.491481338843133355E-15, 1.049697256412017316E-16, -1.000000000000000000 ) ) ;
#148 = ORGANIZATION ( 'UNSPECIFIED', 'UNSPECIFIED', '' ) ;
#149 = DIRECTION ( 'NONE',  ( 3.491481338843133355E-15, 5.502106471775415704E-16, 1.000000000000000000 ) ) ;
#150 = EDGE_CURVE ( 'NONE', #61, #61, #156, .T. ) ;
#151 = CARTESIAN_POINT ( 'NONE',  ( 2.433562493173664138E-13, 1.499999999999990230, 69.70000000000001705 ) ) ;
#152 = DIRECTION ( 'NONE',  ( 1.000000000000000000, 0.0000000000000000000, 0.0000000000000000000 ) ) ;
#153 = CC_DESIGN_PERSON_AND_ORGANIZATION_ASSIGNMENT ( #180, #158, ( #84 ) ) ;
#154 = PERSON_AND_ORGANIZATION ( #99, #148 ) ;
#155 = DATE_AND_TIME ( #80, #195 ) ;
#156 = CIRCLE ( 'NONE', #132, 1.673999999999999710 ) ;
#157 = ADVANCED_FACE ( 'NONE', ( #15, #207 ), #107, .T. ) ;
#158 = PERSON_AND_ORGANIZATION_ROLE ( 'design_supplier' ) ;
#159 = ORIENTED_EDGE ( 'NONE', *, *, #13, .T. ) ;
#160 = CIRCLE ( 'NONE', #30, 1.673999999999992827 ) ;
#161 = ORIENTED_EDGE ( 'NONE', *, *, #233, .F. ) ;
#162 = APPLICATION_CONTEXT ( 'configuration controlled 3d designs of mechanical parts and assemblies' ) ;
#163 = DIRECTION ( 'NONE',  ( 3.491481338843133355E-15, 5.502106471775415704E-16, 1.000000000000000000 ) ) ;
#164 = ADVANCED_FACE ( 'NONE', ( #1 ), #75, .T. ) ;
#165 = CC_DESIGN_APPROVAL ( #41, ( #85 ) ) ;
#166 = CARTESIAN_POINT ( 'NONE',  ( 0.0000000000000000000, 0.0000000000000000000, 0.0000000000000000000 ) ) ;
#167 = CARTESIAN_POINT ( 'NONE',  ( 2.444036937190193601E-13, -7.347880794884121511E-15, 70.00000000000000000 ) ) ;
#168 = DIRECTION ( 'NONE',  ( 3.664998382197393967E-31, 1.000000000000000000, 1.049697256412017316E-16 ) ) ;
#169 = AXIS2_PLACEMENT_3D ( 'NONE', #36, #149, #243 ) ;
#170 = CARTESIAN_POINT ( 'NONE',  ( 0.0000000000000000000, 0.0000000000000000000, 0.0000000000000000000 ) ) ;
#171 = CARTESIAN_POINT ( 'NONE',  ( 0.0000000000000000000, 0.0000000000000000000, 0.0000000000000000000 ) ) ;
#172 = ADVANCED_FACE ( 'NONE', ( #185, #55 ), #87, .T. ) ;
#173 = APPROVAL_ROLE ( '' ) ;
#174 = APPROVAL_PERSON_ORGANIZATION ( #229, #41, #193 ) ;
#175 =( LENGTH_UNIT ( ) NAMED_UNIT ( * ) SI_UNIT ( .MILLI., .METRE. ) );
#176 = MECHANICAL_CONTEXT ( 'NONE', #162, 'mechanical' ) ;
#177 = PERSON_AND_ORGANIZATION ( #99, #148 ) ;
#178 = PERSON_AND_ORGANIZATION ( #99, #148 ) ;
#179 = EDGE_LOOP ( 'NONE', ( #28 ) ) ;
#180 = PERSON_AND_ORGANIZATION ( #99, #148 ) ;
#181 = ORIENTED_EDGE ( 'NONE', *, *, #241, .T. ) ;
#182 = CC_DESIGN_SECURITY_CLASSIFICATION ( #205, ( #84 ) ) ;
#183 = COORDINATED_UNIVERSAL_TIME_OFFSET ( 1, 0, .AHEAD. ) ;
#184 = DIRECTION ( 'NONE',  ( -3.491481338843133355E-15, 1.049697256412017316E-16, -1.000000000000000000 ) ) ;
#185 = FACE_OUTER_BOUND ( 'NONE', #48, .T. ) ;
#186 = AXIS2_PLACEMENT_3D ( 'NONE', #170, #105, #168 ) ;
#187 = FACE_OUTER_BOUND ( 'NONE', #235, .T. ) ;
#188 = FACE_OUTER_BOUND ( 'NONE', #83, .T. ) ;
#189 = APPROVAL_PERSON_ORGANIZATION ( #21, #197, #173 ) ;
#190 = VERTEX_POINT ( 'NONE', #111 ) ;
#191 = APPLICATION_CONTEXT ( 'configuration controlled 3d designs of mechanical parts and assemblies' ) ;
#192 = VERTEX_POINT ( 'NONE', #136 ) ;
#193 = APPROVAL_ROLE ( '' ) ;
#194 =( NAMED_UNIT ( * ) PLANE_ANGLE_UNIT ( ) SI_UNIT ( $, .RADIAN. ) );
#195 = LOCAL_TIME ( 14, 1, 41.00000000000000000, #96 ) ;
#196 = DATE_AND_TIME ( #2, #54 ) ;
#197 = APPROVAL ( #94, 'UNSPECIFIED' ) ;
#198 = EDGE_LOOP ( 'NONE', ( #159 ) ) ;
#199 = DATE_AND_TIME ( #120, #119 ) ;
#200 = EDGE_LOOP ( 'NONE', ( #234 ) ) ;
#201 = AXIS2_PLACEMENT_3D ( 'NONE', #125, #147, #126 ) ;
#202 = DIRECTION ( 'NONE',  ( -3.491481338843133355E-15, 1.049697256412017316E-16, -1.000000000000000000 ) ) ;
#203 = ADVANCED_BREP_SHAPE_REPRESENTATION ( '321238', ( #34, #37, #17 ), #140 ) ;
#204 = CARTESIAN_POINT ( 'NONE',  ( 3.764220119415365634E-14, 1.673999999999998600, 10.78115491421357852 ) ) ;
#205 = SECURITY_CLASSIFICATION ( '', '', #217 ) ;
#206 = DIRECTION ( 'NONE',  ( -3.491481338843133355E-15, 1.049697256412017316E-16, -1.000000000000000000 ) ) ;
#207 = FACE_OUTER_BOUND ( 'NONE', #72, .T. ) ;
#208 = CARTESIAN_POINT ( 'NONE',  ( 3.869445280877825814E-14, -1.163330317703974832E-15, 11.08253175473057794 ) ) ;
#209 = ADVANCED_FACE ( 'NONE', ( #145 ), #220, .T. ) ;
#210 = CARTESIAN_POINT ( 'NONE',  ( 8.728703347107831416E-16, 1.673999999999998600, 0.2499999999999999445 ) ) ;
#211 = PERSON_AND_ORGANIZATION_ROLE ( 'design_owner' ) ;
#212 =( NAMED_UNIT ( * ) SI_UNIT ( $, .STERADIAN. ) SOLID_ANGLE_UNIT ( ) );
#213 = CIRCLE ( 'NONE', #231, 1.673999999999998378 ) ;
#214 = EDGE_LOOP ( 'NONE', ( #181 ) ) ;
#215 = APPROVAL ( #9, 'UNSPECIFIED' ) ;
#216 = CIRCLE ( 'NONE', #22, 1.499999999999997558 ) ;
#217 = SECURITY_CLASSIFICATION_LEVEL ( 'unclassified' ) ;
#218 = DESIGN_CONTEXT ( 'detailed design', #191, 'design' ) ;
#219 = FACE_BOUND ( 'NONE', #26, .T. ) ;
#220 = PLANE ( 'NONE',  #76 ) ;
#221 = ADVANCED_FACE ( 'NONE', ( #187 ), #88, .T. ) ;
#222 = DIRECTION ( 'NONE',  ( 0.0000000000000000000, 1.000000000000000000, 0.0000000000000000000 ) ) ;
#223 = CC_DESIGN_APPROVAL ( #197, ( #84 ) ) ;
#224 = DIRECTION ( 'NONE',  ( -3.491481338843133355E-15, -5.502106471775415704E-16, -1.000000000000000000 ) ) ;
#225 = CARTESIAN_POINT ( 'NONE',  ( 3.764220119415365003E-14, -1.131694873440292977E-15, 10.78115491421357675 ) ) ;
#226 = DIRECTION ( 'NONE',  ( 0.0000000000000000000, 1.000000000000000000, 0.0000000000000000000 ) ) ;
#227 = VERTEX_POINT ( 'NONE', #133 ) ;
#228 = APPROVAL_STATUS ( 'not_yet_approved' ) ;
#229 = PERSON_AND_ORGANIZATION ( #99, #148 ) ;
#230 = DIRECTION ( 'NONE',  ( -3.491481338843133355E-15, 1.049697256412017316E-16, -1.000000000000000000 ) ) ;
#231 = AXIS2_PLACEMENT_3D ( 'NONE', #35, #224, #59 ) ;
#232 = SHAPE_DEFINITION_REPRESENTATION ( #97, #203 ) ;
#233 = EDGE_CURVE ( 'NONE', #64, #64, #216, .T. ) ;
#234 = ORIENTED_EDGE ( 'NONE', *, *, #150, .F. ) ;
#235 = EDGE_LOOP ( 'NONE', ( #139 ) ) ;
#236 = AXIS2_PLACEMENT_3D ( 'NONE', #166, #240, #74 ) ;
#237 = CC_DESIGN_PERSON_AND_ORGANIZATION_ASSIGNMENT ( #114, #23, ( #85 ) ) ;
#238 = ORIENTED_EDGE ( 'NONE', *, *, #108, .T. ) ;
#239 = DIRECTION ( 'NONE',  ( 1.921050207053189703E-30, -1.000000000000000000, 5.502106471775415704E-16 ) ) ;
#240 = DIRECTION ( 'NONE',  ( -3.491481338843133355E-15, -5.502106471775415704E-16, -1.000000000000000000 ) ) ;
#241 = EDGE_CURVE ( 'NONE', #38, #38, #25, .T. ) ;
#242 = CARTESIAN_POINT ( 'NONE',  ( 2.433562493173664138E-13, -7.316389877191761450E-15, 69.70000000000001705 ) ) ;
#243 = DIRECTION ( 'NONE',  ( 1.921050207053189703E-30, -1.000000000000000000, 5.502106471775415704E-16 ) ) ;
ENDSEC;
END-ISO-10303-21;
