ISO-10303-21;
HEADER;
FILE_DESCRIPTION (( 'STEP AP203' ),
    '1' );
FILE_NAME ('321237.step',
    '2021-11-26T13:01:41',
    ( '' ),
    ( '' ),
    'SwSTEP 2.0',
    'SolidWorks 2019',
    '' );
FILE_SCHEMA (( 'CONFIG_CONTROL_DESIGN' ));
ENDSEC;

DATA;
#1 = CARTESIAN_POINT ( 'NONE',  ( 2.444036937190193601E-13, 1.199999999999990186, 70.00000000000000000 ) ) ;
#2 =( GEOMETRIC_REPRESENTATION_CONTEXT ( 3 ) GLOBAL_UNCERTAINTY_ASSIGNED_CONTEXT ( ( #103 ) ) GLOBAL_UNIT_ASSIGNED_CONTEXT ( ( #208, #194, #13 ) ) REPRESENTATION_CONTEXT ( 'NONE', 'WORKASPACE' ) );
#3 = DIRECTION ( 'NONE',  ( -3.692615831060024140E-30, 1.000000000000000000, -1.039378955049019945E-15 ) ) ;
#4 = CIRCLE ( 'NONE', #190, 1.199999999999997513 ) ;
#5 = VERTEX_POINT ( 'NONE', #210 ) ;
#6 = ORIENTED_EDGE ( 'NONE', *, *, #8, .T. ) ;
#7 = PERSON_AND_ORGANIZATION_ROLE ( 'design_owner' ) ;
#8 = EDGE_CURVE ( 'NONE', #84, #84, #218, .T. ) ;
#9 = DIRECTION ( 'NONE',  ( 0.0000000000000000000, 0.0000000000000000000, 1.000000000000000000 ) ) ;
#10 = AXIS2_PLACEMENT_3D ( 'NONE', #129, #201, #173 ) ;
#11 = EDGE_LOOP ( 'NONE', ( #230 ) ) ;
#12 = APPLICATION_PROTOCOL_DEFINITION ( 'international standard', 'config_control_design', 1994, #36 ) ;
#13 =( NAMED_UNIT ( * ) SI_UNIT ( $, .STERADIAN. ) SOLID_ANGLE_UNIT ( ) );
#14 = ORIENTED_EDGE ( 'NONE', *, *, #229, .F. ) ;
#15 = APPLICATION_PROTOCOL_DEFINITION ( 'international standard', 'config_control_design', 1994, #63 ) ;
#16 = DIRECTION ( 'NONE',  ( -3.491481338843133355E-15, 1.049697256412017316E-16, -1.000000000000000000 ) ) ;
#17 = CARTESIAN_POINT ( 'NONE',  ( 2.433562493173664138E-13, -7.316389877191761450E-15, 69.70000000000001705 ) ) ;
#18 = DIRECTION ( 'NONE',  ( -1.918821926054256812E-30, 1.000000000000000000, -5.495724421342714905E-16 ) ) ;
#19 = CIRCLE ( 'NONE', #137, 1.668999999999998707 ) ;
#20 = DIRECTION ( 'NONE',  ( -3.664998382197393967E-31, -1.000000000000000000, -1.049697256412017316E-16 ) ) ;
#21 = DIRECTION ( 'NONE',  ( 0.0000000000000000000, 1.000000000000000000, 0.0000000000000000000 ) ) ;
#22 = CLOSED_SHELL ( 'NONE', ( #33, #99, #123, #54 ) ) ;
#23 = CONICAL_SURFACE ( 'NONE', #219, 1.668999999999999817, 0.5235987755982951519 ) ;
#24 = EDGE_LOOP ( 'NONE', ( #162 ) ) ;
#25 = LOCAL_TIME ( 14, 1, 41.00000000000000000, #235 ) ;
#26 = APPROVAL_STATUS ( 'not_yet_approved' ) ;
#27 = CC_DESIGN_PERSON_AND_ORGANIZATION_ASSIGNMENT ( #211, #233, ( #30 ) ) ;
#28 = CALENDAR_DATE ( 2021, 26, 11 ) ;
#29 = CALENDAR_DATE ( 2021, 26, 11 ) ;
#30 = PRODUCT_DEFINITION_FORMATION_WITH_SPECIFIED_SOURCE ( 'ANY', '', #239, .NOT_KNOWN. ) ;
#31 = ORIENTED_EDGE ( 'NONE', *, *, #229, .T. ) ;
#32 = PERSON_AND_ORGANIZATION ( #85, #232 ) ;
#33 = ADVANCED_FACE ( 'NONE', ( #98 ), #224, .T. ) ;
#34 = DATE_AND_TIME ( #50, #25 ) ;
#35 = FACE_OUTER_BOUND ( 'NONE', #68, .T. ) ;
#36 = APPLICATION_CONTEXT ( 'configuration controlled 3d designs of mechanical parts and assemblies' ) ;
#37 = DIRECTION ( 'NONE',  ( 0.0000000000000000000, 1.000000000000000000, 0.0000000000000000000 ) ) ;
#38 = PLANE ( 'NONE',  #136 ) ;
#39 = FACE_BOUND ( 'NONE', #160, .T. ) ;
#40 = ADVANCED_FACE ( 'NONE', ( #39, #100 ), #23, .T. ) ;
#41 = CC_DESIGN_SECURITY_CLASSIFICATION ( #207, ( #30 ) ) ;
#42 = EDGE_CURVE ( 'NONE', #139, #139, #4, .T. ) ;
#43 = DIRECTION ( 'NONE',  ( 3.664998382197393967E-31, 1.000000000000000000, 1.049697256412017316E-16 ) ) ;
#44 = CARTESIAN_POINT ( 'NONE',  ( 3.869445280877825814E-14, -1.163330317703974832E-15, 11.08253175473057794 ) ) ;
#45 = SECURITY_CLASSIFICATION_LEVEL ( 'unclassified' ) ;
#46 = ORIENTED_EDGE ( 'NONE', *, *, #42, .T. ) ;
#47 = ORIENTED_EDGE ( 'NONE', *, *, #8, .F. ) ;
#48 = EDGE_LOOP ( 'NONE', ( #46 ) ) ;
#49 = EDGE_CURVE ( 'NONE', #61, #61, #149, .T. ) ;
#50 = CALENDAR_DATE ( 2021, 26, 11 ) ;
#51 = FACE_OUTER_BOUND ( 'NONE', #198, .T. ) ;
#52 = CARTESIAN_POINT ( 'NONE',  ( 0.0000000000000000000, 0.0000000000000000000, 0.0000000000000000000 ) ) ;
#53 = CARTESIAN_POINT ( 'NONE',  ( 8.728703347107864943E-16, 1.373931105335683410E-16, 0.2500000000000008882 ) ) ;
#54 = ADVANCED_FACE ( 'NONE', ( #117 ), #57, .T. ) ;
#55 = CARTESIAN_POINT ( 'NONE',  ( 3.767243830951641876E-14, 5.929785072193339160E-15, 10.78981516825142073 ) ) ;
#56 = CC_DESIGN_APPROVAL ( #83, ( #169 ) ) ;
#57 = PLANE ( 'NONE',  #237 ) ;
#58 = FACE_OUTER_BOUND ( 'NONE', #126, .T. ) ;
#59 = CARTESIAN_POINT ( 'NONE',  ( -1.892735826383161356E-31, 1.524662432702592607, -5.421010862427522170E-17 ) ) ;
#60 = ADVANCED_BREP_SHAPE_REPRESENTATION ( '321237', ( #166, #90, #102 ), #2 ) ;
#61 = VERTEX_POINT ( 'NONE', #154 ) ;
#62 = APPROVAL ( #163, 'UNSPECIFIED' ) ;
#63 = APPLICATION_CONTEXT ( 'configuration controlled 3d designs of mechanical parts and assemblies' ) ;
#64 = VERTEX_POINT ( 'NONE', #157 ) ;
#65 = DATE_TIME_ROLE ( 'creation_date' ) ;
#66 = AXIS2_PLACEMENT_3D ( 'NONE', #178, #104, #177 ) ;
#67 = PERSON_AND_ORGANIZATION_ROLE ( 'creator' ) ;
#68 = EDGE_LOOP ( 'NONE', ( #214 ) ) ;
#69 = PERSON_AND_ORGANIZATION ( #85, #232 ) ;
#70 = DATE_AND_TIME ( #28, #223 ) ;
#71 = AXIS2_PLACEMENT_3D ( 'NONE', #17, #147, #203 ) ;
#72 = LOCAL_TIME ( 14, 1, 41.00000000000000000, #200 ) ;
#73 = COORDINATED_UNIVERSAL_TIME_OFFSET ( 1, 0, .AHEAD. ) ;
#74 = APPROVAL ( #113, 'UNSPECIFIED' ) ;
#75 = FACE_BOUND ( 'NONE', #48, .T. ) ;
#76 = CYLINDRICAL_SURFACE ( 'NONE', #97, 1.499999999999995337 ) ;
#77 = PLANE ( 'NONE',  #127 ) ;
#78 = AXIS2_PLACEMENT_3D ( 'NONE', #44, #105, #21 ) ;
#79 = DIRECTION ( 'NONE',  ( -3.491481338843133355E-15, 1.049697256412017316E-16, -1.000000000000000000 ) ) ;
#80 = ADVANCED_FACE ( 'NONE', ( #171 ), #38, .T. ) ;
#81 = CARTESIAN_POINT ( 'NONE',  ( 2.444036937190193601E-13, -7.347880794884121511E-15, 70.00000000000000000 ) ) ;
#82 = AXIS2_PLACEMENT_3D ( 'NONE', #189, #16, #221 ) ;
#83 = APPROVAL ( #26, 'UNSPECIFIED' ) ;
#84 = VERTEX_POINT ( 'NONE', #175 ) ;
#85 = PERSON ( 'UNSPECIFIED', 'UNSPECIFIED', 'UNSPECIFIED', ('UNSPECIFIED'), ('UNSPECIFIED'), ('UNSPECIFIED') ) ;
#86 = CONICAL_SURFACE ( 'NONE', #82, 1.499999999999997558, 0.7853981633974573828 ) ;
#87 = CLOSED_SHELL ( 'NONE', ( #88, #101, #152, #40, #80 ) ) ;
#88 = ADVANCED_FACE ( 'NONE', ( #58 ), #77, .T. ) ;
#89 = APPROVAL_DATE_TIME ( #130, #74 ) ;
#90 = MANIFOLD_SOLID_BREP ( 'Corps-Déplacer/Copier1[2]', #22 ) ;
#91 = MECHANICAL_CONTEXT ( 'NONE', #36, 'mechanical' ) ;
#92 = COORDINATED_UNIVERSAL_TIME_OFFSET ( 1, 0, .AHEAD. ) ;
#93 = ORIENTED_EDGE ( 'NONE', *, *, #220, .T. ) ;
#94 = DIRECTION ( 'NONE',  ( 3.491481338843133355E-15, 5.495724421342714905E-16, 1.000000000000000000 ) ) ;
#95 = ORIENTED_EDGE ( 'NONE', *, *, #42, .F. ) ;
#96 = PERSON_AND_ORGANIZATION ( #85, #232 ) ;
#97 = AXIS2_PLACEMENT_3D ( 'NONE', #196, #195, #43 ) ;
#98 = FACE_OUTER_BOUND ( 'NONE', #124, .T. ) ;
#99 = ADVANCED_FACE ( 'NONE', ( #148, #222 ), #153, .T. ) ;
#100 = FACE_OUTER_BOUND ( 'NONE', #216, .T. ) ;
#101 = ADVANCED_FACE ( 'NONE', ( #75, #35 ), #86, .T. ) ;
#102 = AXIS2_PLACEMENT_3D ( 'NONE', #187, #9, #161 ) ;
#103 = UNCERTAINTY_MEASURE_WITH_UNIT (LENGTH_MEASURE( 1.000000000000000082E-05 ), #208, 'distance_accuracy_value', 'NONE');
#104 = DIRECTION ( 'NONE',  ( -3.491481338843133355E-15, -5.495724421342714905E-16, -1.000000000000000000 ) ) ;
#105 = DIRECTION ( 'NONE',  ( -3.491481338843133355E-15, 1.049697256412017316E-16, -1.000000000000000000 ) ) ;
#106 = VERTEX_POINT ( 'NONE', #138 ) ;
#107 = CC_DESIGN_PERSON_AND_ORGANIZATION_ASSIGNMENT ( #215, #181, ( #30 ) ) ;
#108 = ORIENTED_EDGE ( 'NONE', *, *, #209, .F. ) ;
#109 = CALENDAR_DATE ( 2021, 26, 11 ) ;
#110 = APPROVAL_DATE_TIME ( #70, #62 ) ;
#111 = EDGE_LOOP ( 'NONE', ( #31 ) ) ;
#112 = PERSON_AND_ORGANIZATION ( #85, #232 ) ;
#113 = APPROVAL_STATUS ( 'not_yet_approved' ) ;
#114 = DIRECTION ( 'NONE',  ( -3.491481338843133355E-15, -5.495724421342714905E-16, -1.000000000000000000 ) ) ;
#115 = DIRECTION ( 'NONE',  ( -3.491481338843133355E-15, -5.495724421342714905E-16, -1.000000000000000000 ) ) ;
#116 = DIRECTION ( 'NONE',  ( 1.918821926054256812E-30, -1.000000000000000000, 5.495724421342714905E-16 ) ) ;
#117 = FACE_OUTER_BOUND ( 'NONE', #179, .T. ) ;
#118 = EDGE_CURVE ( 'NONE', #106, #106, #19, .T. ) ;
#119 = CC_DESIGN_APPROVAL ( #74, ( #207 ) ) ;
#120 = PERSON_AND_ORGANIZATION ( #85, #232 ) ;
#121 = EDGE_LOOP ( 'NONE', ( #146 ) ) ;
#122 = APPROVAL_DATE_TIME ( #231, #83 ) ;
#123 = ADVANCED_FACE ( 'NONE', ( #206, #144 ), #212, .T. ) ;
#124 = EDGE_LOOP ( 'NONE', ( #14 ) ) ;
#125 = DATE_AND_TIME ( #186, #213 ) ;
#126 = EDGE_LOOP ( 'NONE', ( #95 ) ) ;
#127 = AXIS2_PLACEMENT_3D ( 'NONE', #81, #192, #20 ) ;
#128 = CC_DESIGN_DATE_AND_TIME_ASSIGNMENT ( #34, #143, ( #207 ) ) ;
#129 = CARTESIAN_POINT ( 'NONE',  ( 3.767243830951642507E-14, -1.132603937930628898E-15, 10.78981516825142251 ) ) ;
#130 = DATE_AND_TIME ( #109, #72 ) ;
#131 = DIRECTION ( 'NONE',  ( -1.918821926054257162E-30, 1.000000000000000000, -5.495724421342713919E-16 ) ) ;
#132 = DIRECTION ( 'NONE',  ( -3.491481338843133355E-15, -5.495724421342714905E-16, -1.000000000000000000 ) ) ;
#133 = APPROVAL_PERSON_ORGANIZATION ( #32, #83, #184 ) ;
#134 = CARTESIAN_POINT ( 'NONE',  ( 2.444036937190193601E-13, -7.347880794884121511E-15, 70.00000000000000000 ) ) ;
#135 = DIRECTION ( 'NONE',  ( -1.961702160250631168E-30, 1.000000000000000000, -5.521700698697899724E-16 ) ) ;
#136 = AXIS2_PLACEMENT_3D ( 'NONE', #238, #79, #151 ) ;
#137 = AXIS2_PLACEMENT_3D ( 'NONE', #53, #132, #135 ) ;
#138 = CARTESIAN_POINT ( 'NONE',  ( 8.728703347107831416E-16, 1.668999999999998929, 0.2499999999999999445 ) ) ;
#139 = VERTEX_POINT ( 'NONE', #1 ) ;
#140 = SHAPE_DEFINITION_REPRESENTATION ( #182, #60 ) ;
#141 = APPROVAL_PERSON_ORGANIZATION ( #96, #62, #164 ) ;
#142 = ORIENTED_EDGE ( 'NONE', *, *, #209, .T. ) ;
#143 = DATE_TIME_ROLE ( 'classification_date' ) ;
#144 = FACE_BOUND ( 'NONE', #121, .T. ) ;
#145 = CC_DESIGN_PERSON_AND_ORGANIZATION_ASSIGNMENT ( #112, #7, ( #239 ) ) ;
#146 = ORIENTED_EDGE ( 'NONE', *, *, #220, .F. ) ;
#147 = DIRECTION ( 'NONE',  ( -3.491481338843133355E-15, 1.049697256412017316E-16, -1.000000000000000000 ) ) ;
#148 = FACE_OUTER_BOUND ( 'NONE', #111, .T. ) ;
#149 = CIRCLE ( 'NONE', #71, 1.499999999999997558 ) ;
#150 = DIRECTION ( 'NONE',  ( 0.0000000000000000000, 1.000000000000000000, 0.0000000000000000000 ) ) ;
#151 = DIRECTION ( 'NONE',  ( 3.664998382197393967E-31, 1.000000000000000000, 1.049697256412017316E-16 ) ) ;
#152 = ADVANCED_FACE ( 'NONE', ( #51, #188 ), #76, .T. ) ;
#153 = CYLINDRICAL_SURFACE ( 'NONE', #165, 1.668999999999995820 ) ;
#154 = CARTESIAN_POINT ( 'NONE',  ( 2.433562493173664138E-13, 1.499999999999990230, 69.70000000000001705 ) ) ;
#155 = DESIGN_CONTEXT ( 'detailed design', #63, 'design' ) ;
#156 = CIRCLE ( 'NONE', #78, 1.499999999999992673 ) ;
#157 = CARTESIAN_POINT ( 'NONE',  ( 3.767243830951642507E-14, 1.668999999999998929, 10.78981516825142251 ) ) ;
#158 = LOCAL_TIME ( 14, 1, 41.00000000000000000, #92 ) ;
#159 = PERSON_AND_ORGANIZATION ( #85, #232 ) ;
#160 = EDGE_LOOP ( 'NONE', ( #142 ) ) ;
#161 = DIRECTION ( 'NONE',  ( 1.000000000000000000, 0.0000000000000000000, 0.0000000000000000000 ) ) ;
#162 = ORIENTED_EDGE ( 'NONE', *, *, #118, .F. ) ;
#163 = APPROVAL_STATUS ( 'not_yet_approved' ) ;
#164 = APPROVAL_ROLE ( '' ) ;
#165 = AXIS2_PLACEMENT_3D ( 'NONE', #52, #114, #131 ) ;
#166 = MANIFOLD_SOLID_BREP ( 'Corps-Déplacer/Copier1[1]', #87 ) ;
#167 = CC_DESIGN_APPROVAL ( #62, ( #30 ) ) ;
#168 = CARTESIAN_POINT ( 'NONE',  ( 2.736282123062641182E-30, 4.307012132673029908E-31, 7.837023479464680230E-16 ) ) ;
#169 = PRODUCT_DEFINITION ( 'UNKNOWN', '', #30, #155 ) ;
#170 = AXIS2_PLACEMENT_3D ( 'NONE', #168, #94, #236 ) ;
#171 = FACE_OUTER_BOUND ( 'NONE', #183, .T. ) ;
#172 = PRODUCT_RELATED_PRODUCT_CATEGORY ( 'detail', '', ( #239 ) ) ;
#173 = DIRECTION ( 'NONE',  ( 0.0000000000000000000, 1.000000000000000000, 0.0000000000000000000 ) ) ;
#174 = DIRECTION ( 'NONE',  ( -3.491481338843133355E-15, -5.495724421342714905E-16, -1.000000000000000000 ) ) ;
#175 = CARTESIAN_POINT ( 'NONE',  ( 3.767243830951642507E-14, 1.668999999999998929, 10.78981516825142251 ) ) ;
#176 = APPROVAL_PERSON_ORGANIZATION ( #120, #74, #217 ) ;
#177 = DIRECTION ( 'NONE',  ( -1.918821926054256812E-30, 1.000000000000000000, -5.495724421342714905E-16 ) ) ;
#178 = CARTESIAN_POINT ( 'NONE',  ( 2.736282123062641182E-30, 4.307012132673029908E-31, 7.837023479464680230E-16 ) ) ;
#179 = EDGE_LOOP ( 'NONE', ( #93 ) ) ;
#180 = PERSON_AND_ORGANIZATION_ROLE ( 'classification_officer' ) ;
#181 = PERSON_AND_ORGANIZATION_ROLE ( 'creator' ) ;
#182 = PRODUCT_DEFINITION_SHAPE ( 'NONE', 'NONE',  #169 ) ;
#183 = EDGE_LOOP ( 'NONE', ( #6 ) ) ;
#184 = APPROVAL_ROLE ( '' ) ;
#185 = CC_DESIGN_PERSON_AND_ORGANIZATION_ASSIGNMENT ( #159, #67, ( #169 ) ) ;
#186 = CALENDAR_DATE ( 2021, 26, 11 ) ;
#187 = CARTESIAN_POINT ( 'NONE',  ( 0.0000000000000000000, 0.0000000000000000000, 0.0000000000000000000 ) ) ;
#188 = FACE_OUTER_BOUND ( 'NONE', #234, .T. ) ;
#189 = CARTESIAN_POINT ( 'NONE',  ( 2.433562493173664138E-13, -7.316389877191761450E-15, 69.70000000000001705 ) ) ;
#190 = AXIS2_PLACEMENT_3D ( 'NONE', #134, #242, #150 ) ;
#191 = CARTESIAN_POINT ( 'NONE',  ( 3.767243830951642507E-14, -1.132603937930628898E-15, 10.78981516825142251 ) ) ;
#192 = DIRECTION ( 'NONE',  ( 3.491481338843133355E-15, -1.049697256412017316E-16, 1.000000000000000000 ) ) ;
#193 = CC_DESIGN_PERSON_AND_ORGANIZATION_ASSIGNMENT ( #69, #180, ( #207 ) ) ;
#194 =( NAMED_UNIT ( * ) PLANE_ANGLE_UNIT ( ) SI_UNIT ( $, .RADIAN. ) );
#195 = DIRECTION ( 'NONE',  ( -3.491481338843133355E-15, 1.049697256412017316E-16, -1.000000000000000000 ) ) ;
#196 = CARTESIAN_POINT ( 'NONE',  ( 0.0000000000000000000, 0.0000000000000000000, 0.0000000000000000000 ) ) ;
#197 = ORIENTED_EDGE ( 'NONE', *, *, #49, .T. ) ;
#198 = EDGE_LOOP ( 'NONE', ( #197 ) ) ;
#199 = CIRCLE ( 'NONE', #66, 1.524662432702592607 ) ;
#200 = COORDINATED_UNIVERSAL_TIME_OFFSET ( 1, 0, .AHEAD. ) ;
#201 = DIRECTION ( 'NONE',  ( -3.491481338843133355E-15, 1.049697256412017316E-16, -1.000000000000000000 ) ) ;
#202 = COORDINATED_UNIVERSAL_TIME_OFFSET ( 1, 0, .AHEAD. ) ;
#203 = DIRECTION ( 'NONE',  ( 0.0000000000000000000, 1.000000000000000000, 0.0000000000000000000 ) ) ;
#204 = CARTESIAN_POINT ( 'NONE',  ( -1.557414644169636705E-30, 1.524662432702592607, -4.460612825975091839E-16 ) ) ;
#205 = DIRECTION ( 'NONE',  ( 3.491481338843133355E-15, 5.495724421342714905E-16, 1.000000000000000000 ) ) ;
#206 = FACE_OUTER_BOUND ( 'NONE', #11, .T. ) ;
#207 = SECURITY_CLASSIFICATION ( '', '', #45 ) ;
#208 =( LENGTH_UNIT ( ) NAMED_UNIT ( * ) SI_UNIT ( .MILLI., .METRE. ) );
#209 = EDGE_CURVE ( 'NONE', #5, #5, #156, .T. ) ;
#210 = CARTESIAN_POINT ( 'NONE',  ( 3.869445280877825814E-14, 1.499999999999991562, 11.08253175473057794 ) ) ;
#211 = PERSON_AND_ORGANIZATION ( #85, #232 ) ;
#212 = CONICAL_SURFACE ( 'NONE', #170, 1.524662432702592607, 0.5235987755982970393 ) ;
#213 = LOCAL_TIME ( 14, 1, 41.00000000000000000, #202 ) ;
#214 = ORIENTED_EDGE ( 'NONE', *, *, #49, .F. ) ;
#215 = PERSON_AND_ORGANIZATION ( #85, #232 ) ;
#216 = EDGE_LOOP ( 'NONE', ( #47 ) ) ;
#217 = APPROVAL_ROLE ( '' ) ;
#218 = CIRCLE ( 'NONE', #10, 1.668999999999999817 ) ;
#219 = AXIS2_PLACEMENT_3D ( 'NONE', #191, #243, #37 ) ;
#220 = EDGE_CURVE ( 'NONE', #226, #226, #199, .T. ) ;
#221 = DIRECTION ( 'NONE',  ( 0.0000000000000000000, 1.000000000000000000, 0.0000000000000000000 ) ) ;
#222 = FACE_OUTER_BOUND ( 'NONE', #24, .T. ) ;
#223 = LOCAL_TIME ( 14, 1, 41.00000000000000000, #73 ) ;
#224 = PLANE ( 'NONE',  #228 ) ;
#225 = AXIS2_PLACEMENT_3D ( 'NONE', #227, #174, #3 ) ;
#226 = VERTEX_POINT ( 'NONE', #59 ) ;
#227 = CARTESIAN_POINT ( 'NONE',  ( 3.767243830951643138E-14, 5.929785072193340738E-15, 10.78981516825142428 ) ) ;
#228 = AXIS2_PLACEMENT_3D ( 'NONE', #55, #205, #116 ) ;
#229 = EDGE_CURVE ( 'NONE', #64, #64, #241, .T. ) ;
#230 = ORIENTED_EDGE ( 'NONE', *, *, #118, .T. ) ;
#231 = DATE_AND_TIME ( #29, #158 ) ;
#232 = ORGANIZATION ( 'UNSPECIFIED', 'UNSPECIFIED', '' ) ;
#233 = PERSON_AND_ORGANIZATION_ROLE ( 'design_supplier' ) ;
#234 = EDGE_LOOP ( 'NONE', ( #108 ) ) ;
#235 = COORDINATED_UNIVERSAL_TIME_OFFSET ( 1, 0, .AHEAD. ) ;
#236 = DIRECTION ( 'NONE',  ( 1.918821926054256812E-30, -1.000000000000000000, 5.495724421342714905E-16 ) ) ;
#237 = AXIS2_PLACEMENT_3D ( 'NONE', #204, #115, #18 ) ;
#238 = CARTESIAN_POINT ( 'NONE',  ( 3.767243830951641876E-14, 1.668999999999998929, 10.78981516825142073 ) ) ;
#239 = PRODUCT ( '321237', '321237', '', ( #91 ) ) ;
#240 = CC_DESIGN_DATE_AND_TIME_ASSIGNMENT ( #125, #65, ( #169 ) ) ;
#241 = CIRCLE ( 'NONE', #225, 1.668999999999992934 ) ;
#242 = DIRECTION ( 'NONE',  ( -3.491481338843133355E-15, 1.049697256412017316E-16, -1.000000000000000000 ) ) ;
#243 = DIRECTION ( 'NONE',  ( -3.491481338843133355E-15, 1.049697256412017316E-16, -1.000000000000000000 ) ) ;
ENDSEC;
END-ISO-10303-21;
