ISO-10303-21;
HEADER;
FILE_DESCRIPTION (( 'STEP AP203' ),
    '1' );
FILE_NAME ('321236.step',
    '2021-11-26T13:01:40',
    ( '' ),
    ( '' ),
    'SwSTEP 2.0',
    'SolidWorks 2019',
    '' );
FILE_SCHEMA (( 'CONFIG_CONTROL_DESIGN' ));
ENDSEC;

DATA;
#1 = DIRECTION ( 'NONE',  ( 0.0000000000000000000, 1.000000000000000000, 0.0000000000000000000 ) ) ;
#2 = CARTESIAN_POINT ( 'NONE',  ( 8.728703347107831416E-16, 1.663999999999998591, 0.2499999999999999445 ) ) ;
#3 = CARTESIAN_POINT ( 'NONE',  ( 3.770267542487920011E-14, 1.663999999999998591, 10.79847542228926827 ) ) ;
#4 = AXIS2_PLACEMENT_3D ( 'NONE', #53, #95, #73 ) ;
#5 = CARTESIAN_POINT ( 'NONE',  ( 2.433562493173664138E-13, -7.316389877191761450E-15, 69.70000000000001705 ) ) ;
#6 = PERSON_AND_ORGANIZATION_ROLE ( 'design_owner' ) ;
#7 = PERSON_AND_ORGANIZATION ( #58, #210 ) ;
#8 = PERSON_AND_ORGANIZATION_ROLE ( 'creator' ) ;
#9 = CC_DESIGN_PERSON_AND_ORGANIZATION_ASSIGNMENT ( #147, #200, ( #207 ) ) ;
#10 = PERSON_AND_ORGANIZATION ( #58, #210 ) ;
#11 = CIRCLE ( 'NONE', #153, 1.663999999999999702 ) ;
#12 = CONICAL_SURFACE ( 'NONE', #129, 1.663999999999999702, 0.5235987755982957070 ) ;
#13 = ORIENTED_EDGE ( 'NONE', *, *, #231, .F. ) ;
#14 = FACE_BOUND ( 'NONE', #131, .T. ) ;
#15 = CARTESIAN_POINT ( 'NONE',  ( 8.728703347107864943E-16, 1.372338151893309233E-16, 0.2500000000000008882 ) ) ;
#16 = CC_DESIGN_PERSON_AND_ORGANIZATION_ASSIGNMENT ( #180, #6, ( #118 ) ) ;
#17 = PLANE ( 'NONE',  #59 ) ;
#18 =( GEOMETRIC_REPRESENTATION_CONTEXT ( 3 ) GLOBAL_UNCERTAINTY_ASSIGNED_CONTEXT ( ( #76 ) ) GLOBAL_UNIT_ASSIGNED_CONTEXT ( ( #62, #142, #81 ) ) REPRESENTATION_CONTEXT ( 'NONE', 'WORKASPACE' ) );
#19 = ORIENTED_EDGE ( 'NONE', *, *, #48, .F. ) ;
#20 = CARTESIAN_POINT ( 'NONE',  ( 3.770267542487920011E-14, -1.133513002420964425E-15, 10.79847542228926827 ) ) ;
#21 = DESIGN_CONTEXT ( 'detailed design', #221, 'design' ) ;
#22 = DIRECTION ( 'NONE',  ( -3.491481338843133355E-15, 1.049697256412017316E-16, -1.000000000000000000 ) ) ;
#23 = CC_DESIGN_SECURITY_CLASSIFICATION ( #207, ( #159 ) ) ;
#24 = APPROVAL ( #106, 'UNSPECIFIED' ) ;
#25 = VERTEX_POINT ( 'NONE', #98 ) ;
#26 = DIRECTION ( 'NONE',  ( -1.916597219167178555E-30, 1.000000000000000000, -5.489352607573217210E-16 ) ) ;
#27 = EDGE_CURVE ( 'NONE', #86, #86, #236, .T. ) ;
#28 = APPROVAL_PERSON_ORGANIZATION ( #126, #24, #199 ) ;
#29 = CALENDAR_DATE ( 2021, 26, 11 ) ;
#30 = CIRCLE ( 'NONE', #203, 1.499999999999992673 ) ;
#31 = COORDINATED_UNIVERSAL_TIME_OFFSET ( 1, 0, .AHEAD. ) ;
#32 = ORIENTED_EDGE ( 'NONE', *, *, #148, .F. ) ;
#33 = DIRECTION ( 'NONE',  ( -3.491481338843133355E-15, 1.049697256412017316E-16, -1.000000000000000000 ) ) ;
#34 = FACE_OUTER_BOUND ( 'NONE', #155, .T. ) ;
#35 = CARTESIAN_POINT ( 'NONE',  ( 2.723307209952301584E-30, 4.281619199238760177E-31, 7.799861851344282839E-16 ) ) ;
#36 = EDGE_LOOP ( 'NONE', ( #32 ) ) ;
#37 = CC_DESIGN_APPROVAL ( #223, ( #159 ) ) ;
#38 = CYLINDRICAL_SURFACE ( 'NONE', #189, 1.499999999999995337 ) ;
#39 = FACE_OUTER_BOUND ( 'NONE', #36, .T. ) ;
#40 = MANIFOLD_SOLID_BREP ( 'Corps-Déplacer/Copier1[1]', #229 ) ;
#41 = ADVANCED_FACE ( 'NONE', ( #239 ), #202, .T. ) ;
#42 = FACE_OUTER_BOUND ( 'NONE', #238, .T. ) ;
#43 = MECHANICAL_CONTEXT ( 'NONE', #46, 'mechanical' ) ;
#44 = SHAPE_DEFINITION_REPRESENTATION ( #113, #161 ) ;
#45 = APPROVAL_ROLE ( '' ) ;
#46 = APPLICATION_CONTEXT ( 'configuration controlled 3d designs of mechanical parts and assemblies' ) ;
#47 = LOCAL_TIME ( 14, 1, 40.00000000000000000, #31 ) ;
#48 = EDGE_CURVE ( 'NONE', #228, #228, #141, .T. ) ;
#49 = ORIENTED_EDGE ( 'NONE', *, *, #192, .T. ) ;
#50 = EDGE_LOOP ( 'NONE', ( #72 ) ) ;
#51 = EDGE_LOOP ( 'NONE', ( #218 ) ) ;
#52 = FACE_BOUND ( 'NONE', #51, .T. ) ;
#53 = CARTESIAN_POINT ( 'NONE',  ( -1.550927187614467081E-30, 1.519662432702592492, -4.442032011914893144E-16 ) ) ;
#54 = CC_DESIGN_APPROVAL ( #24, ( #220 ) ) ;
#55 = CARTESIAN_POINT ( 'NONE',  ( 3.869445280877825814E-14, 1.499999999999991562, 11.08253175473057794 ) ) ;
#56 = FACE_OUTER_BOUND ( 'NONE', #128, .T. ) ;
#57 = VERTEX_POINT ( 'NONE', #82 ) ;
#58 = PERSON ( 'UNSPECIFIED', 'UNSPECIFIED', 'UNSPECIFIED', ('UNSPECIFIED'), ('UNSPECIFIED'), ('UNSPECIFIED') ) ;
#59 = AXIS2_PLACEMENT_3D ( 'NONE', #111, #92, #224 ) ;
#60 = ADVANCED_FACE ( 'NONE', ( #184, #14 ), #84, .T. ) ;
#61 = CARTESIAN_POINT ( 'NONE',  ( 0.0000000000000000000, 0.0000000000000000000, 0.0000000000000000000 ) ) ;
#62 =( LENGTH_UNIT ( ) NAMED_UNIT ( * ) SI_UNIT ( .MILLI., .METRE. ) );
#63 = APPLICATION_PROTOCOL_DEFINITION ( 'international standard', 'config_control_design', 1994, #221 ) ;
#64 = CONICAL_SURFACE ( 'NONE', #101, 1.499999999999997558, 0.7853981633974573828 ) ;
#65 = PERSON_AND_ORGANIZATION_ROLE ( 'design_supplier' ) ;
#66 = CC_DESIGN_PERSON_AND_ORGANIZATION_ASSIGNMENT ( #212, #65, ( #159 ) ) ;
#67 = CALENDAR_DATE ( 2021, 26, 11 ) ;
#68 = CALENDAR_DATE ( 2021, 26, 11 ) ;
#69 = ORIENTED_EDGE ( 'NONE', *, *, #151, .T. ) ;
#70 = ADVANCED_FACE ( 'NONE', ( #187 ), #17, .T. ) ;
#71 = LOCAL_TIME ( 14, 1, 40.00000000000000000, #127 ) ;
#72 = ORIENTED_EDGE ( 'NONE', *, *, #215, .T. ) ;
#73 = DIRECTION ( 'NONE',  ( -1.916597219167178205E-30, 1.000000000000000000, -5.489352607573217210E-16 ) ) ;
#74 = ORIENTED_EDGE ( 'NONE', *, *, #192, .F. ) ;
#75 = CARTESIAN_POINT ( 'NONE',  ( 2.433562493173664138E-13, -7.316389877191761450E-15, 69.70000000000001705 ) ) ;
#76 = UNCERTAINTY_MEASURE_WITH_UNIT (LENGTH_MEASURE( 1.000000000000000082E-05 ), #62, 'distance_accuracy_value', 'NONE');
#77 = DIRECTION ( 'NONE',  ( -3.491481338843133355E-15, 1.049697256412017316E-16, -1.000000000000000000 ) ) ;
#78 = CC_DESIGN_DATE_AND_TIME_ASSIGNMENT ( #216, #89, ( #220 ) ) ;
#79 = APPROVAL_PERSON_ORGANIZATION ( #213, #99, #45 ) ;
#80 = FACE_OUTER_BOUND ( 'NONE', #50, .T. ) ;
#81 =( NAMED_UNIT ( * ) SI_UNIT ( $, .STERADIAN. ) SOLID_ANGLE_UNIT ( ) );
#82 = CARTESIAN_POINT ( 'NONE',  ( 2.433562493173664138E-13, 1.499999999999990230, 69.70000000000001705 ) ) ;
#83 = APPLICATION_PROTOCOL_DEFINITION ( 'international standard', 'config_control_design', 1994, #46 ) ;
#84 = CONICAL_SURFACE ( 'NONE', #146, 1.519662432702592492, 0.5235987755982970393 ) ;
#85 = CC_DESIGN_PERSON_AND_ORGANIZATION_ASSIGNMENT ( #237, #8, ( #159 ) ) ;
#86 = VERTEX_POINT ( 'NONE', #195 ) ;
#87 = APPROVAL_DATE_TIME ( #90, #24 ) ;
#88 = DATE_AND_TIME ( #201, #168 ) ;
#89 = DATE_TIME_ROLE ( 'creation_date' ) ;
#90 = DATE_AND_TIME ( #67, #47 ) ;
#91 = EDGE_LOOP ( 'NONE', ( #166 ) ) ;
#92 = DIRECTION ( 'NONE',  ( -3.491481338843133355E-15, 1.049697256412017316E-16, -1.000000000000000000 ) ) ;
#93 = DIRECTION ( 'NONE',  ( -3.491481338843133355E-15, -5.489352607573217210E-16, -1.000000000000000000 ) ) ;
#94 = CLOSED_SHELL ( 'NONE', ( #41, #186, #60, #103 ) ) ;
#95 = DIRECTION ( 'NONE',  ( -3.491481338843133355E-15, -5.489352607573217210E-16, -1.000000000000000000 ) ) ;
#96 = DIRECTION ( 'NONE',  ( 3.491481338843133355E-15, 5.489352607573217210E-16, 1.000000000000000000 ) ) ;
#97 = CARTESIAN_POINT ( 'NONE',  ( 3.770267542487920011E-14, -1.133513002420964425E-15, 10.79847542228926827 ) ) ;
#98 = CARTESIAN_POINT ( 'NONE',  ( 3.770267542487920011E-14, 1.663999999999998591, 10.79847542228926827 ) ) ;
#99 = APPROVAL ( #198, 'UNSPECIFIED' ) ;
#100 = CARTESIAN_POINT ( 'NONE',  ( 3.869445280877825814E-14, -1.163330317703974832E-15, 11.08253175473057794 ) ) ;
#101 = AXIS2_PLACEMENT_3D ( 'NONE', #75, #77, #185 ) ;
#102 = COORDINATED_UNIVERSAL_TIME_OFFSET ( 1, 0, .AHEAD. ) ;
#103 = ADVANCED_FACE ( 'NONE', ( #167 ), #138, .T. ) ;
#104 = APPROVAL_DATE_TIME ( #160, #99 ) ;
#105 = APPROVAL_PERSON_ORGANIZATION ( #7, #223, #144 ) ;
#106 = APPROVAL_STATUS ( 'not_yet_approved' ) ;
#107 = CARTESIAN_POINT ( 'NONE',  ( 0.0000000000000000000, 0.0000000000000000000, 0.0000000000000000000 ) ) ;
#108 = EDGE_LOOP ( 'NONE', ( #49 ) ) ;
#109 = AXIS2_PLACEMENT_3D ( 'NONE', #107, #235, #234 ) ;
#110 = DIRECTION ( 'NONE',  ( 0.0000000000000000000, 1.000000000000000000, 0.0000000000000000000 ) ) ;
#111 = CARTESIAN_POINT ( 'NONE',  ( 3.770267542487920011E-14, 1.663999999999998591, 10.79847542228926827 ) ) ;
#112 = EDGE_LOOP ( 'NONE', ( #240 ) ) ;
#113 = PRODUCT_DEFINITION_SHAPE ( 'NONE', 'NONE',  #220 ) ;
#114 = AXIS2_PLACEMENT_3D ( 'NONE', #170, #204, #242 ) ;
#115 = ADVANCED_FACE ( 'NONE', ( #133 ), #169, .T. ) ;
#116 = EDGE_LOOP ( 'NONE', ( #19 ) ) ;
#117 = CYLINDRICAL_SURFACE ( 'NONE', #232, 1.663999999999995483 ) ;
#118 = PRODUCT ( '321236', '321236', '', ( #43 ) ) ;
#119 = DIRECTION ( 'NONE',  ( -3.703711431513931163E-30, 1.000000000000000000, -1.042502088928374169E-15 ) ) ;
#120 = DIRECTION ( 'NONE',  ( -3.491481338843133355E-15, -5.489352607573217210E-16, -1.000000000000000000 ) ) ;
#121 = ADVANCED_FACE ( 'NONE', ( #52, #34 ), #64, .T. ) ;
#122 = DIRECTION ( 'NONE',  ( 0.0000000000000000000, 1.000000000000000000, 0.0000000000000000000 ) ) ;
#123 = DIRECTION ( 'NONE',  ( 0.0000000000000000000, 1.000000000000000000, 0.0000000000000000000 ) ) ;
#124 = DATE_AND_TIME ( #177, #175 ) ;
#125 = MANIFOLD_SOLID_BREP ( 'Corps-Déplacer/Copier1[2]', #94 ) ;
#126 = PERSON_AND_ORGANIZATION ( #58, #210 ) ;
#127 = COORDINATED_UNIVERSAL_TIME_OFFSET ( 1, 0, .AHEAD. ) ;
#128 = EDGE_LOOP ( 'NONE', ( #74 ) ) ;
#129 = AXIS2_PLACEMENT_3D ( 'NONE', #97, #209, #123 ) ;
#130 = PERSON_AND_ORGANIZATION_ROLE ( 'creator' ) ;
#131 = EDGE_LOOP ( 'NONE', ( #156 ) ) ;
#132 = CC_DESIGN_PERSON_AND_ORGANIZATION_ASSIGNMENT ( #10, #130, ( #220 ) ) ;
#133 = FACE_OUTER_BOUND ( 'NONE', #116, .T. ) ;
#134 = EDGE_LOOP ( 'NONE', ( #182 ) ) ;
#135 = DIRECTION ( 'NONE',  ( 1.916597219167178205E-30, -1.000000000000000000, 5.489352607573217210E-16 ) ) ;
#136 = AXIS2_PLACEMENT_3D ( 'NONE', #205, #96, #154 ) ;
#137 = CIRCLE ( 'NONE', #225, 1.499999999999997558 ) ;
#138 = PLANE ( 'NONE',  #4 ) ;
#139 = FACE_OUTER_BOUND ( 'NONE', #149, .T. ) ;
#140 = DIRECTION ( 'NONE',  ( -3.491481338843133355E-15, 1.049697256412017316E-16, -1.000000000000000000 ) ) ;
#141 = CIRCLE ( 'NONE', #230, 1.199999999999997513 ) ;
#142 =( NAMED_UNIT ( * ) PLANE_ANGLE_UNIT ( ) SI_UNIT ( $, .RADIAN. ) );
#143 = FACE_BOUND ( 'NONE', #108, .T. ) ;
#144 = APPROVAL_ROLE ( '' ) ;
#145 = APPROVAL_DATE_TIME ( #88, #223 ) ;
#146 = AXIS2_PLACEMENT_3D ( 'NONE', #35, #243, #135 ) ;
#147 = PERSON_AND_ORGANIZATION ( #58, #210 ) ;
#148 = EDGE_CURVE ( 'NONE', #211, #211, #217, .T. ) ;
#149 = EDGE_LOOP ( 'NONE', ( #206 ) ) ;
#150 = AXIS2_PLACEMENT_3D ( 'NONE', #176, #226, #119 ) ;
#151 = EDGE_CURVE ( 'NONE', #25, #25, #11, .T. ) ;
#152 = DIRECTION ( 'NONE',  ( -1.916597219167178205E-30, 1.000000000000000000, -5.489352607573217210E-16 ) ) ;
#153 = AXIS2_PLACEMENT_3D ( 'NONE', #20, #157, #1 ) ;
#154 = DIRECTION ( 'NONE',  ( 1.916597219167178205E-30, -1.000000000000000000, 5.489352607573217210E-16 ) ) ;
#155 = EDGE_LOOP ( 'NONE', ( #13 ) ) ;
#156 = ORIENTED_EDGE ( 'NONE', *, *, #27, .F. ) ;
#157 = DIRECTION ( 'NONE',  ( -3.491481338843133355E-15, 1.049697256412017316E-16, -1.000000000000000000 ) ) ;
#158 = CARTESIAN_POINT ( 'NONE',  ( 0.0000000000000000000, 0.0000000000000000000, 0.0000000000000000000 ) ) ;
#159 = PRODUCT_DEFINITION_FORMATION_WITH_SPECIFIED_SOURCE ( 'ANY', '', #118, .NOT_KNOWN. ) ;
#160 = DATE_AND_TIME ( #29, #71 ) ;
#161 = ADVANCED_BREP_SHAPE_REPRESENTATION ( '321236', ( #40, #125, #109 ), #18 ) ;
#162 = APPROVAL_STATUS ( 'not_yet_approved' ) ;
#163 = COORDINATED_UNIVERSAL_TIME_OFFSET ( 1, 0, .AHEAD. ) ;
#164 = LOCAL_TIME ( 14, 1, 40.00000000000000000, #179 ) ;
#165 = ADVANCED_FACE ( 'NONE', ( #42, #56 ), #38, .T. ) ;
#166 = ORIENTED_EDGE ( 'NONE', *, *, #215, .F. ) ;
#167 = FACE_OUTER_BOUND ( 'NONE', #134, .T. ) ;
#168 = LOCAL_TIME ( 14, 1, 40.00000000000000000, #102 ) ;
#169 = PLANE ( 'NONE',  #114 ) ;
#170 = CARTESIAN_POINT ( 'NONE',  ( 2.444036937190193601E-13, -7.347880794884121511E-15, 70.00000000000000000 ) ) ;
#171 = ADVANCED_FACE ( 'NONE', ( #143, #139 ), #12, .T. ) ;
#172 = DIRECTION ( 'NONE',  ( -3.491481338843133355E-15, 1.049697256412017316E-16, -1.000000000000000000 ) ) ;
#173 = VERTEX_POINT ( 'NONE', #55 ) ;
#174 = PRODUCT_RELATED_PRODUCT_CATEGORY ( 'detail', '', ( #118 ) ) ;
#175 = LOCAL_TIME ( 14, 1, 40.00000000000000000, #163 ) ;
#176 = CARTESIAN_POINT ( 'NONE',  ( 3.770267542487920643E-14, 5.927663921715889860E-15, 10.79847542228927004 ) ) ;
#177 = CALENDAR_DATE ( 2021, 26, 11 ) ;
#178 = ORIENTED_EDGE ( 'NONE', *, *, #231, .T. ) ;
#179 = COORDINATED_UNIVERSAL_TIME_OFFSET ( 1, 0, .AHEAD. ) ;
#180 = PERSON_AND_ORGANIZATION ( #58, #210 ) ;
#181 = CC_DESIGN_DATE_AND_TIME_ASSIGNMENT ( #124, #233, ( #207 ) ) ;
#182 = ORIENTED_EDGE ( 'NONE', *, *, #27, .T. ) ;
#183 = CIRCLE ( 'NONE', #150, 1.663999999999992818 ) ;
#184 = FACE_OUTER_BOUND ( 'NONE', #112, .T. ) ;
#185 = DIRECTION ( 'NONE',  ( 0.0000000000000000000, 1.000000000000000000, 0.0000000000000000000 ) ) ;
#186 = ADVANCED_FACE ( 'NONE', ( #80, #39 ), #117, .T. ) ;
#187 = FACE_OUTER_BOUND ( 'NONE', #219, .T. ) ;
#188 = AXIS2_PLACEMENT_3D ( 'NONE', #190, #93, #152 ) ;
#189 = AXIS2_PLACEMENT_3D ( 'NONE', #158, #140, #196 ) ;
#190 = CARTESIAN_POINT ( 'NONE',  ( 2.723307209952301584E-30, 4.281619199238760177E-31, 7.799861851344282839E-16 ) ) ;
#191 = DIRECTION ( 'NONE',  ( -3.491481338843133355E-15, -5.489352607573217210E-16, -1.000000000000000000 ) ) ;
#192 = EDGE_CURVE ( 'NONE', #173, #173, #30, .T. ) ;
#193 = DIRECTION ( 'NONE',  ( -1.967596697991769230E-30, 1.000000000000000000, -5.538292347431968913E-16 ) ) ;
#194 = DIRECTION ( 'NONE',  ( 0.0000000000000000000, 1.000000000000000000, 0.0000000000000000000 ) ) ;
#195 = CARTESIAN_POINT ( 'NONE',  ( -1.892735826383161356E-31, 1.519662432702592492, -5.421010862427522170E-17 ) ) ;
#196 = DIRECTION ( 'NONE',  ( 3.664998382197393967E-31, 1.000000000000000000, 1.049697256412017316E-16 ) ) ;
#197 = CC_DESIGN_APPROVAL ( #99, ( #207 ) ) ;
#198 = APPROVAL_STATUS ( 'not_yet_approved' ) ;
#199 = APPROVAL_ROLE ( '' ) ;
#200 = PERSON_AND_ORGANIZATION_ROLE ( 'classification_officer' ) ;
#201 = CALENDAR_DATE ( 2021, 26, 11 ) ;
#202 = PLANE ( 'NONE',  #136 ) ;
#203 = AXIS2_PLACEMENT_3D ( 'NONE', #100, #22, #122 ) ;
#204 = DIRECTION ( 'NONE',  ( 3.491481338843133355E-15, -1.049697256412017316E-16, 1.000000000000000000 ) ) ;
#205 = CARTESIAN_POINT ( 'NONE',  ( 3.770267542487920011E-14, 5.927663921715889071E-15, 10.79847542228926827 ) ) ;
#206 = ORIENTED_EDGE ( 'NONE', *, *, #151, .F. ) ;
#207 = SECURITY_CLASSIFICATION ( '', '', #214 ) ;
#208 = CARTESIAN_POINT ( 'NONE',  ( 2.444036937190193601E-13, 1.199999999999990186, 70.00000000000000000 ) ) ;
#209 = DIRECTION ( 'NONE',  ( -3.491481338843133355E-15, 1.049697256412017316E-16, -1.000000000000000000 ) ) ;
#210 = ORGANIZATION ( 'UNSPECIFIED', 'UNSPECIFIED', '' ) ;
#211 = VERTEX_POINT ( 'NONE', #2 ) ;
#212 = PERSON_AND_ORGANIZATION ( #58, #210 ) ;
#213 = PERSON_AND_ORGANIZATION ( #58, #210 ) ;
#214 = SECURITY_CLASSIFICATION_LEVEL ( 'unclassified' ) ;
#215 = EDGE_CURVE ( 'NONE', #227, #227, #183, .T. ) ;
#216 = DATE_AND_TIME ( #68, #164 ) ;
#217 = CIRCLE ( 'NONE', #241, 1.663999999999998369 ) ;
#218 = ORIENTED_EDGE ( 'NONE', *, *, #48, .T. ) ;
#219 = EDGE_LOOP ( 'NONE', ( #69 ) ) ;
#220 = PRODUCT_DEFINITION ( 'UNKNOWN', '', #159, #21 ) ;
#221 = APPLICATION_CONTEXT ( 'configuration controlled 3d designs of mechanical parts and assemblies' ) ;
#222 = CARTESIAN_POINT ( 'NONE',  ( 2.444036937190193601E-13, -7.347880794884121511E-15, 70.00000000000000000 ) ) ;
#223 = APPROVAL ( #162, 'UNSPECIFIED' ) ;
#224 = DIRECTION ( 'NONE',  ( 3.664998382197393967E-31, 1.000000000000000000, 1.049697256412017316E-16 ) ) ;
#225 = AXIS2_PLACEMENT_3D ( 'NONE', #5, #172, #194 ) ;
#226 = DIRECTION ( 'NONE',  ( -3.491481338843133355E-15, -5.489352607573217210E-16, -1.000000000000000000 ) ) ;
#227 = VERTEX_POINT ( 'NONE', #3 ) ;
#228 = VERTEX_POINT ( 'NONE', #208 ) ;
#229 = CLOSED_SHELL ( 'NONE', ( #115, #121, #165, #171, #70 ) ) ;
#230 = AXIS2_PLACEMENT_3D ( 'NONE', #222, #33, #110 ) ;
#231 = EDGE_CURVE ( 'NONE', #57, #57, #137, .T. ) ;
#232 = AXIS2_PLACEMENT_3D ( 'NONE', #61, #120, #26 ) ;
#233 = DATE_TIME_ROLE ( 'classification_date' ) ;
#234 = DIRECTION ( 'NONE',  ( 1.000000000000000000, 0.0000000000000000000, 0.0000000000000000000 ) ) ;
#235 = DIRECTION ( 'NONE',  ( 0.0000000000000000000, 0.0000000000000000000, 1.000000000000000000 ) ) ;
#236 = CIRCLE ( 'NONE', #188, 1.519662432702592492 ) ;
#237 = PERSON_AND_ORGANIZATION ( #58, #210 ) ;
#238 = EDGE_LOOP ( 'NONE', ( #178 ) ) ;
#239 = FACE_OUTER_BOUND ( 'NONE', #91, .T. ) ;
#240 = ORIENTED_EDGE ( 'NONE', *, *, #148, .T. ) ;
#241 = AXIS2_PLACEMENT_3D ( 'NONE', #15, #191, #193 ) ;
#242 = DIRECTION ( 'NONE',  ( -3.664998382197393967E-31, -1.000000000000000000, -1.049697256412017316E-16 ) ) ;
#243 = DIRECTION ( 'NONE',  ( 3.491481338843133355E-15, 5.489352607573217210E-16, 1.000000000000000000 ) ) ;
ENDSEC;
END-ISO-10303-21;
