ISO-10303-21;
HEADER;
FILE_DESCRIPTION (( 'STEP AP203' ),
    '1' );
FILE_NAME ('321235.step',
    '2021-11-26T13:01:39',
    ( '' ),
    ( '' ),
    'SwSTEP 2.0',
    'SolidWorks 2019',
    '' );
FILE_SCHEMA (( 'CONFIG_CONTROL_DESIGN' ));
ENDSEC;

DATA;
#1 = EDGE_LOOP ( 'NONE', ( #159 ) ) ;
#2 = EDGE_CURVE ( 'NONE', #172, #172, #239, .T. ) ;
#3 = DIRECTION ( 'NONE',  ( 1.914376077799656580E-30, -1.000000000000000000, 5.482991005857604015E-16 ) ) ;
#4 = ORIENTED_EDGE ( 'NONE', *, *, #37, .T. ) ;
#5 = CLOSED_SHELL ( 'NONE', ( #77, #74, #214, #67, #149 ) ) ;
#6 = CIRCLE ( 'NONE', #165, 1.199999999999997513 ) ;
#7 = PLANE ( 'NONE',  #29 ) ;
#8 = DIRECTION ( 'NONE',  ( -3.491481338843133355E-15, -5.482991005857604015E-16, -1.000000000000000000 ) ) ;
#9 = AXIS2_PLACEMENT_3D ( 'NONE', #127, #146, #226 ) ;
#10 = DIRECTION ( 'NONE',  ( 0.0000000000000000000, 1.000000000000000000, 0.0000000000000000000 ) ) ;
#11 = CARTESIAN_POINT ( 'NONE',  ( 2.433562493173664138E-13, 1.499999999999990230, 69.70000000000001705 ) ) ;
#12 = DIRECTION ( 'NONE',  ( 3.491481338843133355E-15, 5.482991005857604015E-16, 1.000000000000000000 ) ) ;
#13 = PRODUCT ( '321235', '321235', '', ( #176 ) ) ;
#14 = AXIS2_PLACEMENT_3D ( 'NONE', #76, #8, #189 ) ;
#15 = APPROVAL_ROLE ( '' ) ;
#16 =( NAMED_UNIT ( * ) SI_UNIT ( $, .STERADIAN. ) SOLID_ANGLE_UNIT ( ) );
#17 = APPROVAL_DATE_TIME ( #36, #163 ) ;
#18 = APPROVAL_PERSON_ORGANIZATION ( #158, #91, #197 ) ;
#19 = PERSON_AND_ORGANIZATION_ROLE ( 'design_owner' ) ;
#20 = CALENDAR_DATE ( 2021, 26, 11 ) ;
#21 = PERSON ( 'UNSPECIFIED', 'UNSPECIFIED', 'UNSPECIFIED', ('UNSPECIFIED'), ('UNSPECIFIED'), ('UNSPECIFIED') ) ;
#22 = AXIS2_PLACEMENT_3D ( 'NONE', #39, #185, #164 ) ;
#23 = ORIENTED_EDGE ( 'NONE', *, *, #237, .T. ) ;
#24 = ORIENTED_EDGE ( 'NONE', *, *, #198, .F. ) ;
#25 = DIRECTION ( 'NONE',  ( -3.491481338843133355E-15, -5.482991005857604015E-16, -1.000000000000000000 ) ) ;
#26 = ORGANIZATION ( 'UNSPECIFIED', 'UNSPECIFIED', '' ) ;
#27 = DIRECTION ( 'NONE',  ( -1.914376077799656580E-30, 1.000000000000000000, -5.482991005857604015E-16 ) ) ;
#28 = FACE_OUTER_BOUND ( 'NONE', #75, .T. ) ;
#29 = AXIS2_PLACEMENT_3D ( 'NONE', #205, #25, #109 ) ;
#30 = ADVANCED_FACE ( 'NONE', ( #53, #41 ), #148, .T. ) ;
#31 = DIRECTION ( 'NONE',  ( -3.491481338843133355E-15, 1.049697256412017316E-16, -1.000000000000000000 ) ) ;
#32 = CARTESIAN_POINT ( 'NONE',  ( 3.773291254024197516E-14, 1.658999999999998698, 10.80713567632711047 ) ) ;
#33 = PERSON_AND_ORGANIZATION_ROLE ( 'design_supplier' ) ;
#34 = APPLICATION_PROTOCOL_DEFINITION ( 'international standard', 'config_control_design', 1994, #56 ) ;
#35 = PERSON_AND_ORGANIZATION ( #21, #26 ) ;
#36 = DATE_AND_TIME ( #175, #156 ) ;
#37 = EDGE_CURVE ( 'NONE', #152, #152, #174, .T. ) ;
#38 = CIRCLE ( 'NONE', #14, 1.658999999999992925 ) ;
#39 = CARTESIAN_POINT ( 'NONE',  ( 3.869445280877825814E-14, -1.163330317703974832E-15, 11.08253175473057794 ) ) ;
#40 = EDGE_LOOP ( 'NONE', ( #145 ) ) ;
#41 = FACE_BOUND ( 'NONE', #113, .T. ) ;
#42 = EDGE_LOOP ( 'NONE', ( #4 ) ) ;
#43 = DIRECTION ( 'NONE',  ( -3.491481338843133355E-15, -5.482991005857604015E-16, -1.000000000000000000 ) ) ;
#44 = CARTESIAN_POINT ( 'NONE',  ( 8.728703347107864943E-16, 1.370747751464405688E-16, 0.2500000000000008882 ) ) ;
#45 = FACE_OUTER_BOUND ( 'NONE', #227, .T. ) ;
#46 = CYLINDRICAL_SURFACE ( 'NONE', #225, 1.658999999999995811 ) ;
#47 = PERSON_AND_ORGANIZATION_ROLE ( 'creator' ) ;
#48 =( GEOMETRIC_REPRESENTATION_CONTEXT ( 3 ) GLOBAL_UNCERTAINTY_ASSIGNED_CONTEXT ( ( #215 ) ) GLOBAL_UNIT_ASSIGNED_CONTEXT ( ( #168, #231, #16 ) ) REPRESENTATION_CONTEXT ( 'NONE', 'WORKASPACE' ) );
#49 = CARTESIAN_POINT ( 'NONE',  ( 0.0000000000000000000, 0.0000000000000000000, 0.0000000000000000000 ) ) ;
#50 = CC_DESIGN_APPROVAL ( #91, ( #187 ) ) ;
#51 = COORDINATED_UNIVERSAL_TIME_OFFSET ( 1, 0, .AHEAD. ) ;
#52 = EDGE_CURVE ( 'NONE', #62, #62, #221, .T. ) ;
#53 = FACE_OUTER_BOUND ( 'NONE', #222, .T. ) ;
#54 = LOCAL_TIME ( 14, 1, 39.00000000000000000, #86 ) ;
#55 = DIRECTION ( 'NONE',  ( 0.0000000000000000000, 1.000000000000000000, 0.0000000000000000000 ) ) ;
#56 = APPLICATION_CONTEXT ( 'configuration controlled 3d designs of mechanical parts and assemblies' ) ;
#57 = DIRECTION ( 'NONE',  ( -3.491481338843133355E-15, 1.049697256412017316E-16, -1.000000000000000000 ) ) ;
#58 = ORIENTED_EDGE ( 'NONE', *, *, #37, .F. ) ;
#59 = DIRECTION ( 'NONE',  ( -3.491481338843133355E-15, -5.482991005857604015E-16, -1.000000000000000000 ) ) ;
#60 = DIRECTION ( 'NONE',  ( 3.664998382197393967E-31, 1.000000000000000000, 1.049697256412017316E-16 ) ) ;
#61 = CARTESIAN_POINT ( 'NONE',  ( 0.0000000000000000000, 0.0000000000000000000, 0.0000000000000000000 ) ) ;
#62 = VERTEX_POINT ( 'NONE', #32 ) ;
#63 = CIRCLE ( 'NONE', #92, 1.658999999999998476 ) ;
#64 = VERTEX_POINT ( 'NONE', #132 ) ;
#65 = SHAPE_DEFINITION_REPRESENTATION ( #120, #111 ) ;
#66 = PERSON_AND_ORGANIZATION_ROLE ( 'creator' ) ;
#67 = ADVANCED_FACE ( 'NONE', ( #72, #186 ), #128, .T. ) ;
#68 = COORDINATED_UNIVERSAL_TIME_OFFSET ( 1, 0, .AHEAD. ) ;
#69 = ADVANCED_FACE ( 'NONE', ( #131 ), #7, .T. ) ;
#70 = AXIS2_PLACEMENT_3D ( 'NONE', #49, #217, #201 ) ;
#71 = EDGE_LOOP ( 'NONE', ( #73 ) ) ;
#72 = FACE_BOUND ( 'NONE', #71, .T. ) ;
#73 = ORIENTED_EDGE ( 'NONE', *, *, #2, .T. ) ;
#74 = ADVANCED_FACE ( 'NONE', ( #93, #28 ), #140, .T. ) ;
#75 = EDGE_LOOP ( 'NONE', ( #58 ) ) ;
#76 = CARTESIAN_POINT ( 'NONE',  ( 3.773291254024198147E-14, 5.925542771238439772E-15, 10.80713567632711225 ) ) ;
#77 = ADVANCED_FACE ( 'NONE', ( #190 ), #96, .T. ) ;
#78 = VERTEX_POINT ( 'NONE', #136 ) ;
#79 = FACE_OUTER_BOUND ( 'NONE', #107, .T. ) ;
#80 = FACE_OUTER_BOUND ( 'NONE', #90, .T. ) ;
#81 = CARTESIAN_POINT ( 'NONE',  ( 3.869445280877825814E-14, 1.499999999999991562, 11.08253175473057794 ) ) ;
#82 = AXIS2_PLACEMENT_3D ( 'NONE', #144, #224, #55 ) ;
#83 = AXIS2_PLACEMENT_3D ( 'NONE', #162, #110, #3 ) ;
#84 = COORDINATED_UNIVERSAL_TIME_OFFSET ( 1, 0, .AHEAD. ) ;
#85 = APPROVAL_STATUS ( 'not_yet_approved' ) ;
#86 = COORDINATED_UNIVERSAL_TIME_OFFSET ( 1, 0, .AHEAD. ) ;
#87 = PERSON_AND_ORGANIZATION ( #21, #26 ) ;
#88 = AXIS2_PLACEMENT_3D ( 'NONE', #133, #208, #60 ) ;
#89 = EDGE_LOOP ( 'NONE', ( #161 ) ) ;
#90 = EDGE_LOOP ( 'NONE', ( #129 ) ) ;
#91 = APPROVAL ( #85, 'UNSPECIFIED' ) ;
#92 = AXIS2_PLACEMENT_3D ( 'NONE', #44, #232, #229 ) ;
#93 = FACE_BOUND ( 'NONE', #40, .T. ) ;
#94 = CARTESIAN_POINT ( 'NONE',  ( -1.892735826383161356E-31, 1.514662432702592598, -5.421010862427522170E-17 ) ) ;
#95 = PRODUCT_RELATED_PRODUCT_CATEGORY ( 'detail', '', ( #13 ) ) ;
#96 = PLANE ( 'NONE',  #179 ) ;
#97 = DIRECTION ( 'NONE',  ( -3.664998382197393967E-31, -1.000000000000000000, -1.049697256412017316E-16 ) ) ;
#98 = PLANE ( 'NONE',  #88 ) ;
#99 = APPROVAL_STATUS ( 'not_yet_approved' ) ;
#100 = CC_DESIGN_APPROVAL ( #105, ( #153 ) ) ;
#101 = APPLICATION_PROTOCOL_DEFINITION ( 'international standard', 'config_control_design', 1994, #200 ) ;
#102 = MANIFOLD_SOLID_BREP ( 'Corps-Déplacer/Copier1[1]', #5 ) ;
#103 = CALENDAR_DATE ( 2021, 26, 11 ) ;
#104 = AXIS2_PLACEMENT_3D ( 'NONE', #167, #114, #212 ) ;
#105 = APPROVAL ( #99, 'UNSPECIFIED' ) ;
#106 = PERSON_AND_ORGANIZATION_ROLE ( 'classification_officer' ) ;
#107 = EDGE_LOOP ( 'NONE', ( #24 ) ) ;
#108 = EDGE_CURVE ( 'NONE', #78, #78, #6, .T. ) ;
#109 = DIRECTION ( 'NONE',  ( -1.914376077799656580E-30, 1.000000000000000000, -5.482991005857604015E-16 ) ) ;
#110 = DIRECTION ( 'NONE',  ( 3.491481338843133355E-15, 5.482991005857604015E-16, 1.000000000000000000 ) ) ;
#111 = ADVANCED_BREP_SHAPE_REPRESENTATION ( '321235', ( #102, #182, #70 ), #48 ) ;
#112 = LOCAL_TIME ( 14, 1, 39.00000000000000000, #51 ) ;
#113 = EDGE_LOOP ( 'NONE', ( #166 ) ) ;
#114 = DIRECTION ( 'NONE',  ( -3.491481338843133355E-15, 1.049697256412017316E-16, -1.000000000000000000 ) ) ;
#115 = CARTESIAN_POINT ( 'NONE',  ( 2.444036937190193601E-13, -7.347880794884121511E-15, 70.00000000000000000 ) ) ;
#116 = CYLINDRICAL_SURFACE ( 'NONE', #195, 1.499999999999995337 ) ;
#117 = DIRECTION ( 'NONE',  ( 3.664998382197393967E-31, 1.000000000000000000, 1.049697256412017316E-16 ) ) ;
#118 = VERTEX_POINT ( 'NONE', #94 ) ;
#119 = APPROVAL_ROLE ( '' ) ;
#120 = PRODUCT_DEFINITION_SHAPE ( 'NONE', 'NONE',  #181 ) ;
#121 = DATE_TIME_ROLE ( 'creation_date' ) ;
#122 = DATE_AND_TIME ( #103, #54 ) ;
#123 = CC_DESIGN_PERSON_AND_ORGANIZATION_ASSIGNMENT ( #241, #106, ( #153 ) ) ;
#124 = PERSON_AND_ORGANIZATION ( #21, #26 ) ;
#125 = CIRCLE ( 'NONE', #170, 1.514662432702592598 ) ;
#126 = DATE_TIME_ROLE ( 'classification_date' ) ;
#127 = CARTESIAN_POINT ( 'NONE',  ( 2.433562493173664138E-13, -7.316389877191761450E-15, 69.70000000000001705 ) ) ;
#128 = CONICAL_SURFACE ( 'NONE', #82, 1.658999999999999808, 0.5235987755982947078 ) ;
#129 = ORIENTED_EDGE ( 'NONE', *, *, #228, .T. ) ;
#130 = DIRECTION ( 'NONE',  ( 0.0000000000000000000, 1.000000000000000000, 0.0000000000000000000 ) ) ;
#131 = FACE_OUTER_BOUND ( 'NONE', #206, .T. ) ;
#132 = CARTESIAN_POINT ( 'NONE',  ( 3.773291254024197516E-14, 1.658999999999998698, 10.80713567632711047 ) ) ;
#133 = CARTESIAN_POINT ( 'NONE',  ( 3.773291254024198147E-14, 1.658999999999998698, 10.80713567632711225 ) ) ;
#134 = CC_DESIGN_DATE_AND_TIME_ASSIGNMENT ( #242, #126, ( #153 ) ) ;
#135 = CLOSED_SHELL ( 'NONE', ( #154, #160, #30, #69 ) ) ;
#136 = CARTESIAN_POINT ( 'NONE',  ( 2.444036937190193601E-13, 1.199999999999990186, 70.00000000000000000 ) ) ;
#137 = FACE_OUTER_BOUND ( 'NONE', #1, .T. ) ;
#138 = CC_DESIGN_PERSON_AND_ORGANIZATION_ASSIGNMENT ( #35, #33, ( #187 ) ) ;
#139 = AXIS2_PLACEMENT_3D ( 'NONE', #233, #12, #147 ) ;
#140 = CONICAL_SURFACE ( 'NONE', #104, 1.499999999999997558, 0.7853981633974573828 ) ;
#141 = EDGE_LOOP ( 'NONE', ( #223 ) ) ;
#142 = CC_DESIGN_PERSON_AND_ORGANIZATION_ASSIGNMENT ( #124, #19, ( #13 ) ) ;
#143 = ORIENTED_EDGE ( 'NONE', *, *, #198, .T. ) ;
#144 = CARTESIAN_POINT ( 'NONE',  ( 3.773291254024197516E-14, -1.134422066911299952E-15, 10.80713567632711047 ) ) ;
#145 = ORIENTED_EDGE ( 'NONE', *, *, #108, .T. ) ;
#146 = DIRECTION ( 'NONE',  ( -3.491481338843133355E-15, 1.049697256412017316E-16, -1.000000000000000000 ) ) ;
#147 = DIRECTION ( 'NONE',  ( 1.914376077799656580E-30, -1.000000000000000000, 5.482991005857604015E-16 ) ) ;
#148 = CONICAL_SURFACE ( 'NONE', #83, 1.514662432702592598, 0.5235987755982970393 ) ;
#149 = ADVANCED_FACE ( 'NONE', ( #137 ), #98, .T. ) ;
#150 = PLANE ( 'NONE',  #139 ) ;
#151 = FACE_OUTER_BOUND ( 'NONE', #42, .T. ) ;
#152 = VERTEX_POINT ( 'NONE', #11 ) ;
#153 = SECURITY_CLASSIFICATION ( '', '', #157 ) ;
#154 = ADVANCED_FACE ( 'NONE', ( #45 ), #150, .T. ) ;
#155 = DATE_AND_TIME ( #196, #230 ) ;
#156 = LOCAL_TIME ( 14, 1, 39.00000000000000000, #68 ) ;
#157 = SECURITY_CLASSIFICATION_LEVEL ( 'unclassified' ) ;
#158 = PERSON_AND_ORGANIZATION ( #21, #26 ) ;
#159 = ORIENTED_EDGE ( 'NONE', *, *, #52, .T. ) ;
#160 = ADVANCED_FACE ( 'NONE', ( #80, #79 ), #46, .T. ) ;
#161 = ORIENTED_EDGE ( 'NONE', *, *, #108, .F. ) ;
#162 = CARTESIAN_POINT ( 'NONE',  ( 2.710359944469359573E-30, 4.256324968096840392E-31, 7.762779409175961421E-16 ) ) ;
#163 = APPROVAL ( #216, 'UNSPECIFIED' ) ;
#164 = DIRECTION ( 'NONE',  ( 0.0000000000000000000, 1.000000000000000000, 0.0000000000000000000 ) ) ;
#165 = AXIS2_PLACEMENT_3D ( 'NONE', #171, #210, #10 ) ;
#166 = ORIENTED_EDGE ( 'NONE', *, *, #237, .F. ) ;
#167 = CARTESIAN_POINT ( 'NONE',  ( 2.433562493173664138E-13, -7.316389877191761450E-15, 69.70000000000001705 ) ) ;
#168 =( LENGTH_UNIT ( ) NAMED_UNIT ( * ) SI_UNIT ( .MILLI., .METRE. ) );
#169 = CC_DESIGN_PERSON_AND_ORGANIZATION_ASSIGNMENT ( #87, #47, ( #181 ) ) ;
#170 = AXIS2_PLACEMENT_3D ( 'NONE', #194, #59, #27 ) ;
#171 = CARTESIAN_POINT ( 'NONE',  ( 2.444036937190193601E-13, -7.347880794884121511E-15, 70.00000000000000000 ) ) ;
#172 = VERTEX_POINT ( 'NONE', #81 ) ;
#173 = VERTEX_POINT ( 'NONE', #235 ) ;
#174 = CIRCLE ( 'NONE', #9, 1.499999999999997558 ) ;
#175 = CALENDAR_DATE ( 2021, 26, 11 ) ;
#176 = MECHANICAL_CONTEXT ( 'NONE', #200, 'mechanical' ) ;
#177 = COORDINATED_UNIVERSAL_TIME_OFFSET ( 1, 0, .AHEAD. ) ;
#178 = CC_DESIGN_PERSON_AND_ORGANIZATION_ASSIGNMENT ( #240, #66, ( #187 ) ) ;
#179 = AXIS2_PLACEMENT_3D ( 'NONE', #115, #209, #97 ) ;
#180 = PERSON_AND_ORGANIZATION ( #21, #26 ) ;
#181 = PRODUCT_DEFINITION ( 'UNKNOWN', '', #187, #243 ) ;
#182 = MANIFOLD_SOLID_BREP ( 'Corps-Déplacer/Copier1[2]', #135 ) ;
#183 = CC_DESIGN_SECURITY_CLASSIFICATION ( #153, ( #187 ) ) ;
#184 = EDGE_LOOP ( 'NONE', ( #204 ) ) ;
#185 = DIRECTION ( 'NONE',  ( -3.491481338843133355E-15, 1.049697256412017316E-16, -1.000000000000000000 ) ) ;
#186 = FACE_OUTER_BOUND ( 'NONE', #184, .T. ) ;
#187 = PRODUCT_DEFINITION_FORMATION_WITH_SPECIFIED_SOURCE ( 'ANY', '', #13, .NOT_KNOWN. ) ;
#188 = ORIENTED_EDGE ( 'NONE', *, *, #228, .F. ) ;
#189 = DIRECTION ( 'NONE',  ( -3.714873913224340358E-30, 1.000000000000000000, -1.045644048207844721E-15 ) ) ;
#190 = FACE_OUTER_BOUND ( 'NONE', #89, .T. ) ;
#191 = LOCAL_TIME ( 14, 1, 39.00000000000000000, #177 ) ;
#192 = CARTESIAN_POINT ( 'NONE',  ( 0.0000000000000000000, 0.0000000000000000000, 0.0000000000000000000 ) ) ;
#193 = DIRECTION ( 'NONE',  ( -1.914376077799656580E-30, 1.000000000000000000, -5.482991005857603029E-16 ) ) ;
#194 = CARTESIAN_POINT ( 'NONE',  ( 2.710359944469359573E-30, 4.256324968096840392E-31, 7.762779409175961421E-16 ) ) ;
#195 = AXIS2_PLACEMENT_3D ( 'NONE', #192, #31, #117 ) ;
#196 = CALENDAR_DATE ( 2021, 26, 11 ) ;
#197 = APPROVAL_ROLE ( '' ) ;
#198 = EDGE_CURVE ( 'NONE', #173, #173, #63, .T. ) ;
#199 = APPROVAL_DATE_TIME ( #219, #91 ) ;
#200 = APPLICATION_CONTEXT ( 'configuration controlled 3d designs of mechanical parts and assemblies' ) ;
#201 = DIRECTION ( 'NONE',  ( 1.000000000000000000, 0.0000000000000000000, 0.0000000000000000000 ) ) ;
#202 = AXIS2_PLACEMENT_3D ( 'NONE', #203, #57, #130 ) ;
#203 = CARTESIAN_POINT ( 'NONE',  ( 3.773291254024197516E-14, -1.134422066911299952E-15, 10.80713567632711047 ) ) ;
#204 = ORIENTED_EDGE ( 'NONE', *, *, #52, .F. ) ;
#205 = CARTESIAN_POINT ( 'NONE',  ( -1.544453554872995900E-30, 1.514662432702592598, -4.423490790830732928E-16 ) ) ;
#206 = EDGE_LOOP ( 'NONE', ( #23 ) ) ;
#207 = APPROVAL_PERSON_ORGANIZATION ( #213, #105, #15 ) ;
#208 = DIRECTION ( 'NONE',  ( -3.491481338843133355E-15, 1.049697256412017316E-16, -1.000000000000000000 ) ) ;
#209 = DIRECTION ( 'NONE',  ( 3.491481338843133355E-15, -1.049697256412017316E-16, 1.000000000000000000 ) ) ;
#210 = DIRECTION ( 'NONE',  ( -3.491481338843133355E-15, 1.049697256412017316E-16, -1.000000000000000000 ) ) ;
#211 = FACE_OUTER_BOUND ( 'NONE', #141, .T. ) ;
#212 = DIRECTION ( 'NONE',  ( 0.0000000000000000000, 1.000000000000000000, 0.0000000000000000000 ) ) ;
#213 = PERSON_AND_ORGANIZATION ( #21, #26 ) ;
#214 = ADVANCED_FACE ( 'NONE', ( #151, #211 ), #116, .T. ) ;
#215 = UNCERTAINTY_MEASURE_WITH_UNIT (LENGTH_MEASURE( 1.000000000000000082E-05 ), #168, 'distance_accuracy_value', 'NONE');
#216 = APPROVAL_STATUS ( 'not_yet_approved' ) ;
#217 = DIRECTION ( 'NONE',  ( 0.0000000000000000000, 0.0000000000000000000, 1.000000000000000000 ) ) ;
#218 = CC_DESIGN_DATE_AND_TIME_ASSIGNMENT ( #122, #121, ( #181 ) ) ;
#219 = DATE_AND_TIME ( #20, #191 ) ;
#220 = CC_DESIGN_APPROVAL ( #163, ( #181 ) ) ;
#221 = CIRCLE ( 'NONE', #202, 1.658999999999999808 ) ;
#222 = EDGE_LOOP ( 'NONE', ( #143 ) ) ;
#223 = ORIENTED_EDGE ( 'NONE', *, *, #2, .F. ) ;
#224 = DIRECTION ( 'NONE',  ( -3.491481338843133355E-15, 1.049697256412017316E-16, -1.000000000000000000 ) ) ;
#225 = AXIS2_PLACEMENT_3D ( 'NONE', #61, #43, #193 ) ;
#226 = DIRECTION ( 'NONE',  ( 0.0000000000000000000, 1.000000000000000000, 0.0000000000000000000 ) ) ;
#227 = EDGE_LOOP ( 'NONE', ( #188 ) ) ;
#228 = EDGE_CURVE ( 'NONE', #64, #64, #38, .T. ) ;
#229 = DIRECTION ( 'NONE',  ( -1.857436956612164223E-30, 1.000000000000000000, -5.554984006104156835E-16 ) ) ;
#230 = LOCAL_TIME ( 14, 1, 39.00000000000000000, #84 ) ;
#231 =( NAMED_UNIT ( * ) PLANE_ANGLE_UNIT ( ) SI_UNIT ( $, .RADIAN. ) );
#232 = DIRECTION ( 'NONE',  ( -3.491481338843133355E-15, -5.482991005857604015E-16, -1.000000000000000000 ) ) ;
#233 = CARTESIAN_POINT ( 'NONE',  ( 3.773291254024198147E-14, 5.925542771238438983E-15, 10.80713567632711225 ) ) ;
#234 = APPROVAL_PERSON_ORGANIZATION ( #180, #163, #119 ) ;
#235 = CARTESIAN_POINT ( 'NONE',  ( 8.728703347107833388E-16, 1.658999999999998698, 0.2499999999999999445 ) ) ;
#236 = APPROVAL_DATE_TIME ( #155, #105 ) ;
#237 = EDGE_CURVE ( 'NONE', #118, #118, #125, .T. ) ;
#238 = CALENDAR_DATE ( 2021, 26, 11 ) ;
#239 = CIRCLE ( 'NONE', #22, 1.499999999999992673 ) ;
#240 = PERSON_AND_ORGANIZATION ( #21, #26 ) ;
#241 = PERSON_AND_ORGANIZATION ( #21, #26 ) ;
#242 = DATE_AND_TIME ( #238, #112 ) ;
#243 = DESIGN_CONTEXT ( 'detailed design', #56, 'design' ) ;
ENDSEC;
END-ISO-10303-21;
